ISO-10303-21;
HEADER;
/* Generated by software containing ST-Developer
 * from STEP Tools, Inc. (www.steptools.com) 
 */
/* OPTION: using custom renumber hook */

FILE_DESCRIPTION(
/* description */ ('STEP AP214'),
/* implementation_level */ '2;1');

FILE_NAME(
/* name */ '482089001(1)',
/* time_stamp */ '2022-12-23T08:19:55+01:00',
/* author */ ('License CC BY-ND 4.0'),
/* organization */ ('CADENAS'),
/* preprocessor_version */ 'ST-DEVELOPER v18.102',
/* originating_system */ 'PARTsolutions',
/* authorisation */ '  ');

FILE_SCHEMA (('AUTOMOTIVE_DESIGN {1 0 10303 214 3 1 1}'));
ENDSEC;

DATA;
#10=PROPERTY_DEFINITION_REPRESENTATION(#14,#12);
#11=PROPERTY_DEFINITION_REPRESENTATION(#15,#13);
#12=REPRESENTATION('',(#16),#737);
#13=REPRESENTATION('',(#17),#737);
#14=PROPERTY_DEFINITION('pmi validation property','',#742);
#15=PROPERTY_DEFINITION('pmi validation property','',#742);
#16=VALUE_REPRESENTATION_ITEM('number of annotations',COUNT_MEASURE(0.));
#17=VALUE_REPRESENTATION_ITEM('number of views',COUNT_MEASURE(0.));
#18=SHAPE_REPRESENTATION_RELATIONSHIP('','',#416,#19);
#19=ADVANCED_BREP_SHAPE_REPRESENTATION('',(#414),#737);
#20=TOROIDAL_SURFACE('',#475,43.75,38.2);
#21=TOROIDAL_SURFACE('',#477,43.75,40.25);
#22=CYLINDRICAL_SURFACE('',#424,62.498);
#23=CYLINDRICAL_SURFACE('',#428,55.498);
#24=CYLINDRICAL_SURFACE('',#436,38.498);
#25=CYLINDRICAL_SURFACE('',#448,42.5);
#26=CYLINDRICAL_SURFACE('',#452,52.998);
#27=CYLINDRICAL_SURFACE('',#460,62.498);
#28=CYLINDRICAL_SURFACE('',#464,58.25);
#29=CYLINDRICAL_SURFACE('',#465,38.2);
#30=CYLINDRICAL_SURFACE('',#470,40.2);
#31=CYLINDRICAL_SURFACE('',#471,42.2);
#32=CYLINDRICAL_SURFACE('',#483,36.7);
#33=CYLINDRICAL_SURFACE('',#485,38.7);
#34=PLANE('',#421);
#35=PLANE('',#426);
#36=PLANE('',#430);
#37=PLANE('',#434);
#38=PLANE('',#442);
#39=PLANE('',#450);
#40=PLANE('',#468);
#41=PLANE('',#473);
#42=PLANE('',#479);
#43=PLANE('',#481);
#44=PLANE('',#487);
#45=ORIENTED_EDGE('',*,*,#115,.F.);
#46=ORIENTED_EDGE('',*,*,#116,.F.);
#47=ORIENTED_EDGE('',*,*,#117,.T.);
#48=ORIENTED_EDGE('',*,*,#118,.F.);
#49=ORIENTED_EDGE('',*,*,#119,.T.);
#50=ORIENTED_EDGE('',*,*,#117,.F.);
#51=ORIENTED_EDGE('',*,*,#120,.T.);
#52=ORIENTED_EDGE('',*,*,#119,.F.);
#53=ORIENTED_EDGE('',*,*,#121,.T.);
#54=ORIENTED_EDGE('',*,*,#120,.F.);
#55=ORIENTED_EDGE('',*,*,#122,.T.);
#56=ORIENTED_EDGE('',*,*,#121,.F.);
#57=ORIENTED_EDGE('',*,*,#123,.T.);
#58=ORIENTED_EDGE('',*,*,#122,.F.);
#59=ORIENTED_EDGE('',*,*,#124,.T.);
#60=ORIENTED_EDGE('',*,*,#123,.F.);
#61=ORIENTED_EDGE('',*,*,#125,.T.);
#62=ORIENTED_EDGE('',*,*,#124,.F.);
#63=ORIENTED_EDGE('',*,*,#126,.T.);
#64=ORIENTED_EDGE('',*,*,#125,.F.);
#65=ORIENTED_EDGE('',*,*,#127,.T.);
#66=ORIENTED_EDGE('',*,*,#126,.F.);
#67=ORIENTED_EDGE('',*,*,#128,.T.);
#68=ORIENTED_EDGE('',*,*,#127,.F.);
#69=ORIENTED_EDGE('',*,*,#116,.T.);
#70=ORIENTED_EDGE('',*,*,#128,.F.);
#71=ORIENTED_EDGE('',*,*,#129,.T.);
#72=ORIENTED_EDGE('',*,*,#130,.F.);
#73=ORIENTED_EDGE('',*,*,#131,.T.);
#74=ORIENTED_EDGE('',*,*,#129,.F.);
#75=ORIENTED_EDGE('',*,*,#132,.T.);
#76=ORIENTED_EDGE('',*,*,#131,.F.);
#77=ORIENTED_EDGE('',*,*,#133,.T.);
#78=ORIENTED_EDGE('',*,*,#132,.F.);
#79=ORIENTED_EDGE('',*,*,#134,.T.);
#80=ORIENTED_EDGE('',*,*,#133,.F.);
#81=ORIENTED_EDGE('',*,*,#135,.T.);
#82=ORIENTED_EDGE('',*,*,#134,.F.);
#83=ORIENTED_EDGE('',*,*,#136,.T.);
#84=ORIENTED_EDGE('',*,*,#135,.F.);
#85=ORIENTED_EDGE('',*,*,#137,.T.);
#86=ORIENTED_EDGE('',*,*,#136,.F.);
#87=ORIENTED_EDGE('',*,*,#138,.T.);
#88=ORIENTED_EDGE('',*,*,#137,.F.);
#89=ORIENTED_EDGE('',*,*,#118,.T.);
#90=ORIENTED_EDGE('',*,*,#138,.F.);
#91=ORIENTED_EDGE('',*,*,#139,.T.);
#92=ORIENTED_EDGE('',*,*,#140,.F.);
#93=ORIENTED_EDGE('',*,*,#141,.T.);
#94=ORIENTED_EDGE('',*,*,#139,.F.);
#95=ORIENTED_EDGE('',*,*,#115,.T.);
#96=ORIENTED_EDGE('',*,*,#141,.F.);
#97=ORIENTED_EDGE('',*,*,#142,.T.);
#98=ORIENTED_EDGE('',*,*,#130,.T.);
#99=ORIENTED_EDGE('',*,*,#143,.T.);
#100=ORIENTED_EDGE('',*,*,#142,.F.);
#101=ORIENTED_EDGE('',*,*,#144,.F.);
#102=ORIENTED_EDGE('',*,*,#140,.T.);
#103=ORIENTED_EDGE('',*,*,#145,.T.);
#104=ORIENTED_EDGE('',*,*,#143,.F.);
#105=ORIENTED_EDGE('',*,*,#146,.T.);
#106=ORIENTED_EDGE('',*,*,#145,.F.);
#107=ORIENTED_EDGE('',*,*,#144,.T.);
#108=ORIENTED_EDGE('',*,*,#147,.F.);
#109=ORIENTED_EDGE('',*,*,#147,.T.);
#110=ORIENTED_EDGE('',*,*,#148,.F.);
#111=ORIENTED_EDGE('',*,*,#149,.T.);
#112=ORIENTED_EDGE('',*,*,#146,.F.);
#113=ORIENTED_EDGE('',*,*,#148,.T.);
#114=ORIENTED_EDGE('',*,*,#149,.F.);
#115=EDGE_CURVE('',#150,#150,#185,.T.);
#116=EDGE_CURVE('',#151,#151,#186,.T.);
#117=EDGE_CURVE('',#152,#152,#187,.T.);
#118=EDGE_CURVE('',#153,#153,#188,.T.);
#119=EDGE_CURVE('',#154,#154,#189,.T.);
#120=EDGE_CURVE('',#155,#155,#190,.T.);
#121=EDGE_CURVE('',#156,#156,#191,.T.);
#122=EDGE_CURVE('',#157,#157,#192,.T.);
#123=EDGE_CURVE('',#158,#158,#193,.T.);
#124=EDGE_CURVE('',#159,#159,#194,.T.);
#125=EDGE_CURVE('',#160,#160,#195,.T.);
#126=EDGE_CURVE('',#161,#161,#196,.T.);
#127=EDGE_CURVE('',#162,#162,#197,.T.);
#128=EDGE_CURVE('',#163,#163,#198,.T.);
#129=EDGE_CURVE('',#164,#164,#199,.T.);
#130=EDGE_CURVE('',#165,#165,#200,.F.);
#131=EDGE_CURVE('',#166,#166,#201,.T.);
#132=EDGE_CURVE('',#167,#167,#202,.T.);
#133=EDGE_CURVE('',#168,#168,#203,.T.);
#134=EDGE_CURVE('',#169,#169,#204,.T.);
#135=EDGE_CURVE('',#170,#170,#205,.T.);
#136=EDGE_CURVE('',#171,#171,#206,.T.);
#137=EDGE_CURVE('',#172,#172,#207,.T.);
#138=EDGE_CURVE('',#173,#173,#208,.T.);
#139=EDGE_CURVE('',#174,#174,#209,.T.);
#140=EDGE_CURVE('',#175,#175,#210,.T.);
#141=EDGE_CURVE('',#176,#176,#211,.T.);
#142=EDGE_CURVE('',#177,#177,#212,.T.);
#143=EDGE_CURVE('',#178,#178,#213,.T.);
#144=EDGE_CURVE('',#179,#179,#214,.T.);
#145=EDGE_CURVE('',#180,#180,#215,.T.);
#146=EDGE_CURVE('',#181,#181,#216,.T.);
#147=EDGE_CURVE('',#182,#182,#217,.T.);
#148=EDGE_CURVE('',#183,#183,#218,.T.);
#149=EDGE_CURVE('',#184,#184,#219,.T.);
#150=VERTEX_POINT('',#633);
#151=VERTEX_POINT('',#635);
#152=VERTEX_POINT('',#638);
#153=VERTEX_POINT('',#640);
#154=VERTEX_POINT('',#643);
#155=VERTEX_POINT('',#646);
#156=VERTEX_POINT('',#649);
#157=VERTEX_POINT('',#652);
#158=VERTEX_POINT('',#655);
#159=VERTEX_POINT('',#658);
#160=VERTEX_POINT('',#661);
#161=VERTEX_POINT('',#664);
#162=VERTEX_POINT('',#667);
#163=VERTEX_POINT('',#670);
#164=VERTEX_POINT('',#674);
#165=VERTEX_POINT('',#676);
#166=VERTEX_POINT('',#679);
#167=VERTEX_POINT('',#682);
#168=VERTEX_POINT('',#685);
#169=VERTEX_POINT('',#688);
#170=VERTEX_POINT('',#691);
#171=VERTEX_POINT('',#694);
#172=VERTEX_POINT('',#697);
#173=VERTEX_POINT('',#700);
#174=VERTEX_POINT('',#704);
#175=VERTEX_POINT('',#706);
#176=VERTEX_POINT('',#709);
#177=VERTEX_POINT('',#713);
#178=VERTEX_POINT('',#716);
#179=VERTEX_POINT('',#719);
#180=VERTEX_POINT('',#722);
#181=VERTEX_POINT('',#725);
#182=VERTEX_POINT('',#728);
#183=VERTEX_POINT('',#731);
#184=VERTEX_POINT('',#734);
#185=CIRCLE('',#419,40.2);
#186=CIRCLE('',#420,38.5);
#187=CIRCLE('',#422,62.498);
#188=CIRCLE('',#423,58.25);
#189=CIRCLE('',#425,62.498);
#190=CIRCLE('',#427,55.498);
#191=CIRCLE('',#429,55.498);
#192=CIRCLE('',#431,51.498);
#193=CIRCLE('',#433,47.498);
#194=CIRCLE('',#435,38.498);
#195=CIRCLE('',#437,38.498);
#196=CIRCLE('',#439,35.498);
#197=CIRCLE('',#441,33.498);
#198=CIRCLE('',#443,36.5);
#199=CIRCLE('',#446,42.5);
#200=CIRCLE('',#447,42.2);
#201=CIRCLE('',#449,42.5);
#202=CIRCLE('',#451,52.998);
#203=CIRCLE('',#453,52.998);
#204=CIRCLE('',#455,51.065);
#205=CIRCLE('',#457,53.653);
#206=CIRCLE('',#459,62.498);
#207=CIRCLE('',#461,62.498);
#208=CIRCLE('',#463,58.25);
#209=CIRCLE('',#466,38.2);
#210=CIRCLE('',#467,38.2);
#211=CIRCLE('',#469,40.2);
#212=CIRCLE('',#472,42.2);
#213=CIRCLE('',#474,40.25);
#214=CIRCLE('',#476,38.2);
#215=CIRCLE('',#478,40.25);
#216=CIRCLE('',#480,38.7);
#217=CIRCLE('',#482,36.7);
#218=CIRCLE('',#484,36.7);
#219=CIRCLE('',#486,38.7);
#220=EDGE_LOOP('',(#45));
#221=EDGE_LOOP('',(#46));
#222=EDGE_LOOP('',(#47));
#223=EDGE_LOOP('',(#48));
#224=EDGE_LOOP('',(#49));
#225=EDGE_LOOP('',(#50));
#226=EDGE_LOOP('',(#51));
#227=EDGE_LOOP('',(#52));
#228=EDGE_LOOP('',(#53));
#229=EDGE_LOOP('',(#54));
#230=EDGE_LOOP('',(#55));
#231=EDGE_LOOP('',(#56));
#232=EDGE_LOOP('',(#57));
#233=EDGE_LOOP('',(#58));
#234=EDGE_LOOP('',(#59));
#235=EDGE_LOOP('',(#60));
#236=EDGE_LOOP('',(#61));
#237=EDGE_LOOP('',(#62));
#238=EDGE_LOOP('',(#63));
#239=EDGE_LOOP('',(#64));
#240=EDGE_LOOP('',(#65));
#241=EDGE_LOOP('',(#66));
#242=EDGE_LOOP('',(#67));
#243=EDGE_LOOP('',(#68));
#244=EDGE_LOOP('',(#69));
#245=EDGE_LOOP('',(#70));
#246=EDGE_LOOP('',(#71));
#247=EDGE_LOOP('',(#72));
#248=EDGE_LOOP('',(#73));
#249=EDGE_LOOP('',(#74));
#250=EDGE_LOOP('',(#75));
#251=EDGE_LOOP('',(#76));
#252=EDGE_LOOP('',(#77));
#253=EDGE_LOOP('',(#78));
#254=EDGE_LOOP('',(#79));
#255=EDGE_LOOP('',(#80));
#256=EDGE_LOOP('',(#81));
#257=EDGE_LOOP('',(#82));
#258=EDGE_LOOP('',(#83));
#259=EDGE_LOOP('',(#84));
#260=EDGE_LOOP('',(#85));
#261=EDGE_LOOP('',(#86));
#262=EDGE_LOOP('',(#87));
#263=EDGE_LOOP('',(#88));
#264=EDGE_LOOP('',(#89));
#265=EDGE_LOOP('',(#90));
#266=EDGE_LOOP('',(#91));
#267=EDGE_LOOP('',(#92));
#268=EDGE_LOOP('',(#93));
#269=EDGE_LOOP('',(#94));
#270=EDGE_LOOP('',(#95));
#271=EDGE_LOOP('',(#96));
#272=EDGE_LOOP('',(#97));
#273=EDGE_LOOP('',(#98));
#274=EDGE_LOOP('',(#99));
#275=EDGE_LOOP('',(#100));
#276=EDGE_LOOP('',(#101));
#277=EDGE_LOOP('',(#102));
#278=EDGE_LOOP('',(#103));
#279=EDGE_LOOP('',(#104));
#280=EDGE_LOOP('',(#105));
#281=EDGE_LOOP('',(#106));
#282=EDGE_LOOP('',(#107));
#283=EDGE_LOOP('',(#108));
#284=EDGE_LOOP('',(#109));
#285=EDGE_LOOP('',(#110));
#286=EDGE_LOOP('',(#111));
#287=EDGE_LOOP('',(#112));
#288=EDGE_LOOP('',(#113));
#289=EDGE_LOOP('',(#114));
#290=FACE_BOUND('',#220,.T.);
#291=FACE_BOUND('',#221,.T.);
#292=FACE_BOUND('',#222,.T.);
#293=FACE_BOUND('',#223,.T.);
#294=FACE_BOUND('',#224,.T.);
#295=FACE_BOUND('',#225,.T.);
#296=FACE_BOUND('',#226,.T.);
#297=FACE_BOUND('',#227,.T.);
#298=FACE_BOUND('',#228,.T.);
#299=FACE_BOUND('',#229,.T.);
#300=FACE_BOUND('',#230,.T.);
#301=FACE_BOUND('',#231,.T.);
#302=FACE_BOUND('',#232,.T.);
#303=FACE_BOUND('',#233,.T.);
#304=FACE_BOUND('',#234,.T.);
#305=FACE_BOUND('',#235,.T.);
#306=FACE_BOUND('',#236,.T.);
#307=FACE_BOUND('',#237,.T.);
#308=FACE_BOUND('',#238,.T.);
#309=FACE_BOUND('',#239,.T.);
#310=FACE_BOUND('',#240,.T.);
#311=FACE_BOUND('',#241,.T.);
#312=FACE_BOUND('',#242,.T.);
#313=FACE_BOUND('',#243,.T.);
#314=FACE_BOUND('',#244,.T.);
#315=FACE_BOUND('',#245,.T.);
#316=FACE_BOUND('',#246,.T.);
#317=FACE_BOUND('',#247,.T.);
#318=FACE_BOUND('',#248,.T.);
#319=FACE_BOUND('',#249,.T.);
#320=FACE_BOUND('',#250,.T.);
#321=FACE_BOUND('',#251,.T.);
#322=FACE_BOUND('',#252,.T.);
#323=FACE_BOUND('',#253,.T.);
#324=FACE_BOUND('',#254,.T.);
#325=FACE_BOUND('',#255,.T.);
#326=FACE_BOUND('',#256,.T.);
#327=FACE_BOUND('',#257,.T.);
#328=FACE_BOUND('',#258,.T.);
#329=FACE_BOUND('',#259,.T.);
#330=FACE_BOUND('',#260,.T.);
#331=FACE_BOUND('',#261,.T.);
#332=FACE_BOUND('',#262,.T.);
#333=FACE_BOUND('',#263,.T.);
#334=FACE_BOUND('',#264,.T.);
#335=FACE_BOUND('',#265,.T.);
#336=FACE_BOUND('',#266,.T.);
#337=FACE_BOUND('',#267,.T.);
#338=FACE_BOUND('',#268,.T.);
#339=FACE_BOUND('',#269,.T.);
#340=FACE_BOUND('',#270,.T.);
#341=FACE_BOUND('',#271,.T.);
#342=FACE_BOUND('',#272,.T.);
#343=FACE_BOUND('',#273,.T.);
#344=FACE_BOUND('',#274,.T.);
#345=FACE_BOUND('',#275,.T.);
#346=FACE_BOUND('',#276,.T.);
#347=FACE_BOUND('',#277,.T.);
#348=FACE_BOUND('',#278,.T.);
#349=FACE_BOUND('',#279,.T.);
#350=FACE_BOUND('',#280,.T.);
#351=FACE_BOUND('',#281,.T.);
#352=FACE_BOUND('',#282,.T.);
#353=FACE_BOUND('',#283,.T.);
#354=FACE_BOUND('',#284,.T.);
#355=FACE_BOUND('',#285,.T.);
#356=FACE_BOUND('',#286,.T.);
#357=FACE_BOUND('',#287,.T.);
#358=FACE_BOUND('',#288,.T.);
#359=FACE_BOUND('',#289,.T.);
#360=CONICAL_SURFACE('',#418,38.5,0.927295218001612);
#361=CONICAL_SURFACE('',#432,51.498,0.237517179731095);
#362=CONICAL_SURFACE('',#438,38.498,0.643501108793283);
#363=CONICAL_SURFACE('',#440,35.498,0.0377179524668644);
#364=CONICAL_SURFACE('',#444,36.5,0.0377179524668644);
#365=CONICAL_SURFACE('',#445,38.5,0.927295218001612);
#366=CONICAL_SURFACE('',#454,52.998,0.665807706788415);
#367=CONICAL_SURFACE('',#456,51.065,0.237503939046405);
#368=CONICAL_SURFACE('',#458,53.653,1.38484091809921);
#369=CONICAL_SURFACE('',#462,62.498,1.09591323553613);
#370=ADVANCED_FACE('',(#290,#291),#360,.T.);
#371=ADVANCED_FACE('',(#292,#293),#34,.T.);
#372=ADVANCED_FACE('',(#294,#295),#22,.T.);
#373=ADVANCED_FACE('',(#296,#297),#35,.T.);
#374=ADVANCED_FACE('',(#298,#299),#23,.F.);
#375=ADVANCED_FACE('',(#300,#301),#36,.T.);
#376=ADVANCED_FACE('',(#302,#303),#361,.F.);
#377=ADVANCED_FACE('',(#304,#305),#37,.T.);
#378=ADVANCED_FACE('',(#306,#307),#24,.F.);
#379=ADVANCED_FACE('',(#308,#309),#362,.F.);
#380=ADVANCED_FACE('',(#310,#311),#363,.F.);
#381=ADVANCED_FACE('',(#312,#313),#38,.T.);
#382=ADVANCED_FACE('',(#314,#315),#364,.T.);
#383=ADVANCED_FACE('',(#316,#317),#365,.T.);
#384=ADVANCED_FACE('',(#318,#319),#25,.T.);
#385=ADVANCED_FACE('',(#320,#321),#39,.T.);
#386=ADVANCED_FACE('',(#322,#323),#26,.T.);
#387=ADVANCED_FACE('',(#324,#325),#366,.T.);
#388=ADVANCED_FACE('',(#326,#327),#367,.T.);
#389=ADVANCED_FACE('',(#328,#329),#368,.T.);
#390=ADVANCED_FACE('',(#330,#331),#27,.T.);
#391=ADVANCED_FACE('',(#332,#333),#369,.T.);
#392=ADVANCED_FACE('',(#334,#335),#28,.T.);
#393=ADVANCED_FACE('',(#336,#337),#29,.F.);
#394=ADVANCED_FACE('',(#338,#339),#40,.T.);
#395=ADVANCED_FACE('',(#340,#341),#30,.F.);
#396=ADVANCED_FACE('',(#342,#343),#31,.T.);
#397=ADVANCED_FACE('',(#344,#345),#41,.T.);
#398=ADVANCED_FACE('',(#346,#347),#20,.F.);
#399=ADVANCED_FACE('',(#348,#349),#21,.T.);
#400=ADVANCED_FACE('',(#350,#351),#42,.F.);
#401=ADVANCED_FACE('',(#352,#353),#43,.T.);
#402=ADVANCED_FACE('',(#354,#355),#32,.F.);
#403=ADVANCED_FACE('',(#356,#357),#33,.T.);
#404=ADVANCED_FACE('',(#358,#359),#44,.T.);
#405=CLOSED_SHELL('',(#370,#371,#372,#373,#374,#375,#376,#377,#378,#379,
#380,#381,#382,#383,#384,#385,#386,#387,#388,#389,#390,#391,#392,#393,#394,
#395,#396,#397,#398,#399,#400,#401,#402,#403,#404));
#406=STYLED_ITEM('',(#407),#414);
#407=PRESENTATION_STYLE_ASSIGNMENT((#408));
#408=SURFACE_STYLE_USAGE(.BOTH.,#409);
#409=SURFACE_SIDE_STYLE('',(#410));
#410=SURFACE_STYLE_FILL_AREA(#411);
#411=FILL_AREA_STYLE('',(#412));
#412=FILL_AREA_STYLE_COLOUR('',#413);
#413=COLOUR_RGB('',0.689999997615814,0.689999997615814,0.689999997615814);
#414=MANIFOLD_SOLID_BREP('482089001(1)',#405);
#415=SHAPE_DEFINITION_REPRESENTATION(#742,#416);
#416=SHAPE_REPRESENTATION('482089001(1)',(#417),#737);
#417=AXIS2_PLACEMENT_3D('',#630,#488,#489);
#418=AXIS2_PLACEMENT_3D('',#631,#490,#491);
#419=AXIS2_PLACEMENT_3D('',#632,#492,#493);
#420=AXIS2_PLACEMENT_3D('',#634,#494,#495);
#421=AXIS2_PLACEMENT_3D('',#636,#496,#497);
#422=AXIS2_PLACEMENT_3D('',#637,#498,#499);
#423=AXIS2_PLACEMENT_3D('',#639,#500,#501);
#424=AXIS2_PLACEMENT_3D('',#641,#502,#503);
#425=AXIS2_PLACEMENT_3D('',#642,#504,#505);
#426=AXIS2_PLACEMENT_3D('',#644,#506,#507);
#427=AXIS2_PLACEMENT_3D('',#645,#508,#509);
#428=AXIS2_PLACEMENT_3D('',#647,#510,#511);
#429=AXIS2_PLACEMENT_3D('',#648,#512,#513);
#430=AXIS2_PLACEMENT_3D('',#650,#514,#515);
#431=AXIS2_PLACEMENT_3D('',#651,#516,#517);
#432=AXIS2_PLACEMENT_3D('',#653,#518,#519);
#433=AXIS2_PLACEMENT_3D('',#654,#520,#521);
#434=AXIS2_PLACEMENT_3D('',#656,#522,#523);
#435=AXIS2_PLACEMENT_3D('',#657,#524,#525);
#436=AXIS2_PLACEMENT_3D('',#659,#526,#527);
#437=AXIS2_PLACEMENT_3D('',#660,#528,#529);
#438=AXIS2_PLACEMENT_3D('',#662,#530,#531);
#439=AXIS2_PLACEMENT_3D('',#663,#532,#533);
#440=AXIS2_PLACEMENT_3D('',#665,#534,#535);
#441=AXIS2_PLACEMENT_3D('',#666,#536,#537);
#442=AXIS2_PLACEMENT_3D('',#668,#538,#539);
#443=AXIS2_PLACEMENT_3D('',#669,#540,#541);
#444=AXIS2_PLACEMENT_3D('',#671,#542,#543);
#445=AXIS2_PLACEMENT_3D('',#672,#544,#545);
#446=AXIS2_PLACEMENT_3D('',#673,#546,#547);
#447=AXIS2_PLACEMENT_3D('',#675,#548,#549);
#448=AXIS2_PLACEMENT_3D('',#677,#550,#551);
#449=AXIS2_PLACEMENT_3D('',#678,#552,#553);
#450=AXIS2_PLACEMENT_3D('',#680,#554,#555);
#451=AXIS2_PLACEMENT_3D('',#681,#556,#557);
#452=AXIS2_PLACEMENT_3D('',#683,#558,#559);
#453=AXIS2_PLACEMENT_3D('',#684,#560,#561);
#454=AXIS2_PLACEMENT_3D('',#686,#562,#563);
#455=AXIS2_PLACEMENT_3D('',#687,#564,#565);
#456=AXIS2_PLACEMENT_3D('',#689,#566,#567);
#457=AXIS2_PLACEMENT_3D('',#690,#568,#569);
#458=AXIS2_PLACEMENT_3D('',#692,#570,#571);
#459=AXIS2_PLACEMENT_3D('',#693,#572,#573);
#460=AXIS2_PLACEMENT_3D('',#695,#574,#575);
#461=AXIS2_PLACEMENT_3D('',#696,#576,#577);
#462=AXIS2_PLACEMENT_3D('',#698,#578,#579);
#463=AXIS2_PLACEMENT_3D('',#699,#580,#581);
#464=AXIS2_PLACEMENT_3D('',#701,#582,#583);
#465=AXIS2_PLACEMENT_3D('',#702,#584,#585);
#466=AXIS2_PLACEMENT_3D('',#703,#586,#587);
#467=AXIS2_PLACEMENT_3D('',#705,#588,#589);
#468=AXIS2_PLACEMENT_3D('',#707,#590,#591);
#469=AXIS2_PLACEMENT_3D('',#708,#592,#593);
#470=AXIS2_PLACEMENT_3D('',#710,#594,#595);
#471=AXIS2_PLACEMENT_3D('',#711,#596,#597);
#472=AXIS2_PLACEMENT_3D('',#712,#598,#599);
#473=AXIS2_PLACEMENT_3D('',#714,#600,#601);
#474=AXIS2_PLACEMENT_3D('',#715,#602,#603);
#475=AXIS2_PLACEMENT_3D('',#717,#604,#605);
#476=AXIS2_PLACEMENT_3D('',#718,#606,#607);
#477=AXIS2_PLACEMENT_3D('',#720,#608,#609);
#478=AXIS2_PLACEMENT_3D('',#721,#610,#611);
#479=AXIS2_PLACEMENT_3D('',#723,#612,#613);
#480=AXIS2_PLACEMENT_3D('',#724,#614,#615);
#481=AXIS2_PLACEMENT_3D('',#726,#616,#617);
#482=AXIS2_PLACEMENT_3D('',#727,#618,#619);
#483=AXIS2_PLACEMENT_3D('',#729,#620,#621);
#484=AXIS2_PLACEMENT_3D('',#730,#622,#623);
#485=AXIS2_PLACEMENT_3D('',#732,#624,#625);
#486=AXIS2_PLACEMENT_3D('',#733,#626,#627);
#487=AXIS2_PLACEMENT_3D('',#735,#628,#629);
#488=DIRECTION('',(0.,0.,1.));
#489=DIRECTION('',(1.,0.,0.));
#490=DIRECTION('',(0.,0.,1.));
#491=DIRECTION('',(1.,0.,0.));
#492=DIRECTION('',(0.,0.,1.));
#493=DIRECTION('',(1.,0.,0.));
#494=DIRECTION('',(0.,0.,-1.));
#495=DIRECTION('',(-1.,0.,0.));
#496=DIRECTION('',(0.,0.,-1.));
#497=DIRECTION('',(-1.,0.,0.));
#498=DIRECTION('',(0.,0.,-1.));
#499=DIRECTION('',(-1.,0.,0.));
#500=DIRECTION('',(0.,0.,-1.));
#501=DIRECTION('',(-1.,0.,0.));
#502=DIRECTION('',(0.,0.,-1.));
#503=DIRECTION('',(-1.,0.,0.));
#504=DIRECTION('',(0.,0.,-1.));
#505=DIRECTION('',(-1.,0.,0.));
#506=DIRECTION('',(0.,0.,1.));
#507=DIRECTION('',(1.,0.,0.));
#508=DIRECTION('',(0.,0.,-1.));
#509=DIRECTION('',(-1.,0.,0.));
#510=DIRECTION('',(0.,0.,-1.));
#511=DIRECTION('',(-1.,0.,0.));
#512=DIRECTION('',(0.,0.,-1.));
#513=DIRECTION('',(-1.,0.,0.));
#514=DIRECTION('',(0.,0.,1.));
#515=DIRECTION('',(1.,0.,0.));
#516=DIRECTION('',(0.,0.,-1.));
#517=DIRECTION('',(-1.,0.,0.));
#518=DIRECTION('',(0.,0.,1.));
#519=DIRECTION('',(1.,0.,0.));
#520=DIRECTION('',(0.,0.,-1.));
#521=DIRECTION('',(-1.,0.,0.));
#522=DIRECTION('',(0.,0.,1.));
#523=DIRECTION('',(1.,0.,0.));
#524=DIRECTION('',(0.,0.,-1.));
#525=DIRECTION('',(-1.,0.,0.));
#526=DIRECTION('',(0.,0.,-1.));
#527=DIRECTION('',(-1.,0.,0.));
#528=DIRECTION('',(0.,0.,-1.));
#529=DIRECTION('',(-1.,0.,0.));
#530=DIRECTION('',(0.,0.,1.));
#531=DIRECTION('',(1.,0.,0.));
#532=DIRECTION('',(0.,0.,-1.));
#533=DIRECTION('',(-1.,0.,0.));
#534=DIRECTION('',(0.,0.,1.));
#535=DIRECTION('',(1.,0.,0.));
#536=DIRECTION('',(0.,0.,-1.));
#537=DIRECTION('',(-1.,0.,0.));
#538=DIRECTION('',(0.,0.,-1.));
#539=DIRECTION('',(-1.,0.,0.));
#540=DIRECTION('',(0.,0.,-1.));
#541=DIRECTION('',(-1.,0.,0.));
#542=DIRECTION('',(0.,0.,1.));
#543=DIRECTION('',(1.,0.,0.));
#544=DIRECTION('',(0.,0.,1.));
#545=DIRECTION('',(1.,0.,0.));
#546=DIRECTION('',(0.,0.,-1.));
#547=DIRECTION('',(-1.,0.,0.));
#548=DIRECTION('',(0.,0.,1.));
#549=DIRECTION('',(1.,0.,0.));
#550=DIRECTION('',(0.,0.,-1.));
#551=DIRECTION('',(-1.,0.,0.));
#552=DIRECTION('',(0.,0.,-1.));
#553=DIRECTION('',(-1.,0.,0.));
#554=DIRECTION('',(0.,0.,-1.));
#555=DIRECTION('',(-1.,0.,0.));
#556=DIRECTION('',(0.,0.,-1.));
#557=DIRECTION('',(-1.,0.,0.));
#558=DIRECTION('',(0.,0.,-1.));
#559=DIRECTION('',(-1.,0.,0.));
#560=DIRECTION('',(0.,0.,-1.));
#561=DIRECTION('',(-1.,0.,0.));
#562=DIRECTION('',(0.,0.,-1.));
#563=DIRECTION('',(-1.,0.,0.));
#564=DIRECTION('',(0.,0.,-1.));
#565=DIRECTION('',(-1.,0.,0.));
#566=DIRECTION('',(0.,0.,1.));
#567=DIRECTION('',(1.,0.,0.));
#568=DIRECTION('',(0.,0.,-1.));
#569=DIRECTION('',(-1.,0.,0.));
#570=DIRECTION('',(0.,0.,1.));
#571=DIRECTION('',(1.,0.,0.));
#572=DIRECTION('',(0.,0.,-1.));
#573=DIRECTION('',(-1.,0.,0.));
#574=DIRECTION('',(0.,0.,-1.));
#575=DIRECTION('',(-1.,0.,0.));
#576=DIRECTION('',(0.,0.,-1.));
#577=DIRECTION('',(-1.,0.,0.));
#578=DIRECTION('',(0.,0.,-1.));
#579=DIRECTION('',(-1.,0.,0.));
#580=DIRECTION('',(0.,0.,-1.));
#581=DIRECTION('',(-1.,0.,0.));
#582=DIRECTION('',(0.,0.,-1.));
#583=DIRECTION('',(-1.,0.,0.));
#584=DIRECTION('',(0.,0.,1.));
#585=DIRECTION('',(1.,0.,0.));
#586=DIRECTION('',(0.,0.,1.));
#587=DIRECTION('',(1.,0.,0.));
#588=DIRECTION('',(0.,0.,1.));
#589=DIRECTION('',(1.,0.,0.));
#590=DIRECTION('',(0.,0.,1.));
#591=DIRECTION('',(1.,0.,0.));
#592=DIRECTION('',(0.,0.,1.));
#593=DIRECTION('',(1.,0.,0.));
#594=DIRECTION('',(0.,0.,1.));
#595=DIRECTION('',(1.,0.,0.));
#596=DIRECTION('',(0.,0.,1.));
#597=DIRECTION('',(1.,0.,0.));
#598=DIRECTION('',(0.,0.,1.));
#599=DIRECTION('',(1.,0.,0.));
#600=DIRECTION('',(0.,0.,-1.));
#601=DIRECTION('',(-1.,0.,0.));
#602=DIRECTION('',(0.,0.,1.));
#603=DIRECTION('',(1.,0.,0.));
#604=DIRECTION('',(0.,1.,0.));
#605=DIRECTION('',(0.,0.,1.));
#606=DIRECTION('',(-0.999048221581858,0.,0.043619387365336));
#607=DIRECTION('',(0.043619387365336,0.,0.999048221581858));
#608=DIRECTION('',(0.,1.,0.));
#609=DIRECTION('',(0.,0.,1.));
#610=DIRECTION('',(-0.999048221581858,0.,0.043619387365336));
#611=DIRECTION('',(0.043619387365336,0.,0.999048221581858));
#612=DIRECTION('',(-0.999048221581858,0.,0.043619387365336));
#613=DIRECTION('',(0.043619387365336,0.,0.999048221581858));
#614=DIRECTION('',(-0.999048221581858,0.,0.0436193873653364));
#615=DIRECTION('',(0.0436193873653364,0.,0.999048221581858));
#616=DIRECTION('',(-0.999048221581858,0.,0.0436193873653364));
#617=DIRECTION('',(0.0436193873653364,0.,0.999048221581858));
#618=DIRECTION('',(-0.999048221581858,0.,0.0436193873653364));
#619=DIRECTION('',(0.0436193873653364,0.,0.999048221581858));
#620=DIRECTION('',(-0.999048221581858,0.,0.0436193873653364));
#621=DIRECTION('',(0.0436193873653364,0.,0.999048221581858));
#622=DIRECTION('',(-0.999048221581858,0.,0.0436193873653364));
#623=DIRECTION('',(0.0436193873653364,0.,0.999048221581858));
#624=DIRECTION('',(-0.999048221581858,0.,0.0436193873653364));
#625=DIRECTION('',(0.0436193873653364,0.,0.999048221581858));
#626=DIRECTION('',(-0.999048221581858,0.,0.0436193873653364));
#627=DIRECTION('',(0.0436193873653364,0.,0.999048221581858));
#628=DIRECTION('',(0.999048221581858,0.,-0.0436193873653364));
#629=DIRECTION('',(-0.0436193873653364,0.,-0.999048221581858));
#630=CARTESIAN_POINT('',(0.,0.,0.));
#631=CARTESIAN_POINT('',(0.,0.,-42.));
#632=CARTESIAN_POINT('',(0.,0.,-40.725));
#633=CARTESIAN_POINT('',(40.2,0.,-40.725));
#634=CARTESIAN_POINT('',(0.,0.,-42.));
#635=CARTESIAN_POINT('',(-38.5,0.,-42.));
#636=CARTESIAN_POINT('',(-58.25,0.,-6.00000000000001));
#637=CARTESIAN_POINT('',(0.,0.,-6.00000000000001));
#638=CARTESIAN_POINT('',(-62.498,0.,-6.00000000000001));
#639=CARTESIAN_POINT('',(0.,0.,-6.00000000000001));
#640=CARTESIAN_POINT('',(-58.25,0.,-6.00000000000001));
#641=CARTESIAN_POINT('',(0.,0.,-5.));
#642=CARTESIAN_POINT('',(0.,0.,-1.38777878078145E-14));
#643=CARTESIAN_POINT('',(-62.498,0.,-1.38777878078145E-14));
#644=CARTESIAN_POINT('',(-62.498,0.,-6.93889390390723E-15));
#645=CARTESIAN_POINT('',(0.,0.,0.));
#646=CARTESIAN_POINT('',(-55.498,0.,0.));
#647=CARTESIAN_POINT('',(0.,0.,-5.));
#648=CARTESIAN_POINT('',(0.,0.,-11.));
#649=CARTESIAN_POINT('',(-55.498,0.,-11.));
#650=CARTESIAN_POINT('',(-55.498,0.,-11.));
#651=CARTESIAN_POINT('',(0.,0.,-11.));
#652=CARTESIAN_POINT('',(-51.498,0.,-11.));
#653=CARTESIAN_POINT('',(0.,0.,-11.));
#654=CARTESIAN_POINT('',(0.,0.,-27.523));
#655=CARTESIAN_POINT('',(-47.498,0.,-27.523));
#656=CARTESIAN_POINT('',(-47.498,0.,-27.523));
#657=CARTESIAN_POINT('',(0.,0.,-27.523));
#658=CARTESIAN_POINT('',(-38.498,0.,-27.523));
#659=CARTESIAN_POINT('',(0.,0.,-5.));
#660=CARTESIAN_POINT('',(0.,0.,-38.));
#661=CARTESIAN_POINT('',(-38.498,0.,-38.));
#662=CARTESIAN_POINT('',(0.,0.,-38.));
#663=CARTESIAN_POINT('',(0.,0.,-42.));
#664=CARTESIAN_POINT('',(-35.498,0.,-42.));
#665=CARTESIAN_POINT('',(0.,0.,-42.));
#666=CARTESIAN_POINT('',(0.,0.,-95.));
#667=CARTESIAN_POINT('',(-33.498,0.,-95.));
#668=CARTESIAN_POINT('',(-33.498,0.,-95.));
#669=CARTESIAN_POINT('',(0.,0.,-95.));
#670=CARTESIAN_POINT('',(-36.5,0.,-95.));
#671=CARTESIAN_POINT('',(0.,0.,-95.));
#672=CARTESIAN_POINT('',(0.,0.,-42.));
#673=CARTESIAN_POINT('',(0.,0.,-39.));
#674=CARTESIAN_POINT('',(-42.5,0.,-39.));
#675=CARTESIAN_POINT('',(0.,0.,-39.225));
#676=CARTESIAN_POINT('',(42.2,0.,-39.225));
#677=CARTESIAN_POINT('',(0.,0.,-5.));
#678=CARTESIAN_POINT('',(0.,0.,-30.));
#679=CARTESIAN_POINT('',(-42.5,0.,-30.));
#680=CARTESIAN_POINT('',(-42.5,0.,-30.));
#681=CARTESIAN_POINT('',(0.,0.,-30.));
#682=CARTESIAN_POINT('',(-52.998,0.,-30.));
#683=CARTESIAN_POINT('',(0.,0.,-5.));
#684=CARTESIAN_POINT('',(0.,0.,-28.));
#685=CARTESIAN_POINT('',(-52.998,0.,-28.));
#686=CARTESIAN_POINT('',(0.,0.,-28.));
#687=CARTESIAN_POINT('',(0.,0.,-25.539));
#688=CARTESIAN_POINT('',(-51.065,0.,-25.539));
#689=CARTESIAN_POINT('',(0.,0.,-25.539));
#690=CARTESIAN_POINT('',(0.,0.,-14.848));
#691=CARTESIAN_POINT('',(-53.653,0.,-14.848));
#692=CARTESIAN_POINT('',(0.,0.,-14.848));
#693=CARTESIAN_POINT('',(0.,0.,-13.184));
#694=CARTESIAN_POINT('',(-62.498,0.,-13.184));
#695=CARTESIAN_POINT('',(0.,0.,-5.));
#696=CARTESIAN_POINT('',(0.,0.,-11.184));
#697=CARTESIAN_POINT('',(-62.498,0.,-11.184));
#698=CARTESIAN_POINT('',(0.,0.,-11.184));
#699=CARTESIAN_POINT('',(0.,0.,-9.00000000000001));
#700=CARTESIAN_POINT('',(-58.25,0.,-9.00000000000001));
#701=CARTESIAN_POINT('',(0.,0.,-5.));
#702=CARTESIAN_POINT('',(0.,0.,-39.));
#703=CARTESIAN_POINT('',(0.,0.,-87.));
#704=CARTESIAN_POINT('',(38.2,0.,-87.));
#705=CARTESIAN_POINT('',(0.,0.,-89.));
#706=CARTESIAN_POINT('',(38.2,0.,-89.));
#707=CARTESIAN_POINT('',(38.2,0.,-87.));
#708=CARTESIAN_POINT('',(0.,0.,-87.));
#709=CARTESIAN_POINT('',(40.2,0.,-87.));
#710=CARTESIAN_POINT('',(0.,0.,-39.));
#711=CARTESIAN_POINT('',(0.,0.,-39.));
#712=CARTESIAN_POINT('',(0.,0.,-89.));
#713=CARTESIAN_POINT('',(42.2,0.,-89.));
#714=CARTESIAN_POINT('',(42.2,0.,-89.));
#715=CARTESIAN_POINT('',(0.,0.,-89.));
#716=CARTESIAN_POINT('',(40.25,0.,-89.));
#717=CARTESIAN_POINT('',(43.75,0.,-89.));
#718=CARTESIAN_POINT('',(41.8416518027666,0.,-132.708359694206));
#719=CARTESIAN_POINT('',(43.5079124001224,0.,-94.5447176297793));
#720=CARTESIAN_POINT('',(43.75,0.,-89.));
#721=CARTESIAN_POINT('',(41.8416518027666,0.,-132.708359694206));
#722=CARTESIAN_POINT('',(43.5973321442213,0.,-92.4966687755365));
#723=CARTESIAN_POINT('',(41.8416518027666,0.,-132.708359694206));
#724=CARTESIAN_POINT('',(41.8238550927215,0.,-133.115971368612));
#725=CARTESIAN_POINT('',(43.51192538376,0.,-94.4528051933938));
#726=CARTESIAN_POINT('',(43.4246866090293,0.,-96.4509016365575));
#727=CARTESIAN_POINT('',(41.8238550927215,0.,-133.115971368612));
#728=CARTESIAN_POINT('',(43.4246866090293,0.,-96.4509016365575));
#729=CARTESIAN_POINT('',(41.8238550927215,0.,-133.115971368612));
#730=CARTESIAN_POINT('',(94.0341151525894,0.,-135.395520552324));
#731=CARTESIAN_POINT('',(95.6349466688972,0.,-98.73045082027));
#732=CARTESIAN_POINT('',(41.8238550927215,0.,-133.115971368612));
#733=CARTESIAN_POINT('',(94.0341151525894,0.,-135.395520552324));
#734=CARTESIAN_POINT('',(95.7221854436279,0.,-96.7323543771062));
#735=CARTESIAN_POINT('',(95.7221854436279,0.,-96.7323543771062));
#736=MECHANICAL_DESIGN_GEOMETRIC_PRESENTATION_REPRESENTATION('',(#406),
#737);
#737=(
GEOMETRIC_REPRESENTATION_CONTEXT(3)
GLOBAL_UNCERTAINTY_ASSIGNED_CONTEXT((#738))
GLOBAL_UNIT_ASSIGNED_CONTEXT((#741,#740,#739))
REPRESENTATION_CONTEXT('482089001(1)','TOP_LEVEL_ASSEMBLY_PART')
);
#738=UNCERTAINTY_MEASURE_WITH_UNIT(LENGTH_MEASURE(0.005),#741,
'DISTANCE_ACCURACY_VALUE','Maximum Tolerance applied to model');
#739=(
NAMED_UNIT(*)
SI_UNIT($,.STERADIAN.)
SOLID_ANGLE_UNIT()
);
#740=(
NAMED_UNIT(*)
PLANE_ANGLE_UNIT()
SI_UNIT($,.RADIAN.)
);
#741=(
LENGTH_UNIT()
NAMED_UNIT(*)
SI_UNIT(.MILLI.,.METRE.)
);
#742=PRODUCT_DEFINITION_SHAPE('','',#743);
#743=PRODUCT_DEFINITION('','',#745,#744);
#744=PRODUCT_DEFINITION_CONTEXT('',#751,'design');
#745=PRODUCT_DEFINITION_FORMATION_WITH_SPECIFIED_SOURCE('','',#747,
 .NOT_KNOWN.);
#746=PRODUCT_RELATED_PRODUCT_CATEGORY('','',(#747));
#747=PRODUCT('482089001(1)','482089001(1)','482089001(1)',(#749));
#748=PRODUCT_CATEGORY('','');
#749=PRODUCT_CONTEXT('',#751,'mechanical');
#750=APPLICATION_PROTOCOL_DEFINITION('international standard',
'automotive_design',2010,#751);
#751=APPLICATION_CONTEXT(
'core data for automotive mechanical design processes');
ENDSEC;
END-ISO-10303-21;
