ISO-10303-21;
HEADER;
/* Generated by software containing ST-Developer
 * from STEP Tools, Inc. (www.steptools.com) 
 */
/* OPTION: using custom renumber hook */

FILE_DESCRIPTION(
/* description */ ('STEP AP214'),
/* implementation_level */ '2;1');

FILE_NAME(
/* name */ '482069001(1)',
/* time_stamp */ '2022-12-23T08:19:36+01:00',
/* author */ ('License CC BY-ND 4.0'),
/* organization */ ('CADENAS'),
/* preprocessor_version */ 'ST-DEVELOPER v18.102',
/* originating_system */ 'PARTsolutions',
/* authorisation */ '  ');

FILE_SCHEMA (('AUTOMOTIVE_DESIGN {1 0 10303 214 3 1 1}'));
ENDSEC;

DATA;
#10=PROPERTY_DEFINITION_REPRESENTATION(#14,#12);
#11=PROPERTY_DEFINITION_REPRESENTATION(#15,#13);
#12=REPRESENTATION('',(#16),#697);
#13=REPRESENTATION('',(#17),#697);
#14=PROPERTY_DEFINITION('pmi validation property','',#702);
#15=PROPERTY_DEFINITION('pmi validation property','',#702);
#16=VALUE_REPRESENTATION_ITEM('number of annotations',COUNT_MEASURE(0.));
#17=VALUE_REPRESENTATION_ITEM('number of views',COUNT_MEASURE(0.));
#18=SHAPE_REPRESENTATION_RELATIONSHIP('','',#394,#19);
#19=ADVANCED_BREP_SHAPE_REPRESENTATION('',(#392),#697);
#20=TOROIDAL_SURFACE('',#447,43.25,33.25);
#21=TOROIDAL_SURFACE('',#449,43.25,35.25);
#22=CONICAL_SURFACE('',#406,47.,0.0499583957219428);
#23=CONICAL_SURFACE('',#410,41.5,0.321750554396643);
#24=CONICAL_SURFACE('',#414,25.,0.0659867835152371);
#25=CONICAL_SURFACE('',#418,26.642,0.0659707949251099);
#26=CONICAL_SURFACE('',#422,39.,0.927295218001611);
#27=CONICAL_SURFACE('',#430,44.,0.785398163397446);
#28=CONICAL_SURFACE('',#432,41.,0.321750554396643);
#29=CONICAL_SURFACE('',#434,44.,1.460139105621);
#30=CONICAL_SURFACE('',#438,53.,0.785398163397447);
#31=CYLINDRICAL_SURFACE('',#402,54.);
#32=CYLINDRICAL_SURFACE('',#424,42.5);
#33=CYLINDRICAL_SURFACE('',#428,44.);
#34=CYLINDRICAL_SURFACE('',#436,53.);
#35=CYLINDRICAL_SURFACE('',#440,50.);
#36=CYLINDRICAL_SURFACE('',#444,33.25);
#37=CYLINDRICAL_SURFACE('',#446,37.);
#38=CYLINDRICAL_SURFACE('',#453,31.5);
#39=CYLINDRICAL_SURFACE('',#455,35.25);
#40=CYLINDRICAL_SURFACE('',#459,33.5);
#41=ORIENTED_EDGE('',*,*,#107,.F.);
#42=ORIENTED_EDGE('',*,*,#108,.F.);
#43=ORIENTED_EDGE('',*,*,#109,.T.);
#44=ORIENTED_EDGE('',*,*,#110,.F.);
#45=ORIENTED_EDGE('',*,*,#111,.T.);
#46=ORIENTED_EDGE('',*,*,#109,.F.);
#47=ORIENTED_EDGE('',*,*,#112,.T.);
#48=ORIENTED_EDGE('',*,*,#111,.F.);
#49=ORIENTED_EDGE('',*,*,#113,.T.);
#50=ORIENTED_EDGE('',*,*,#112,.F.);
#51=ORIENTED_EDGE('',*,*,#114,.T.);
#52=ORIENTED_EDGE('',*,*,#113,.F.);
#53=ORIENTED_EDGE('',*,*,#115,.T.);
#54=ORIENTED_EDGE('',*,*,#114,.F.);
#55=ORIENTED_EDGE('',*,*,#116,.T.);
#56=ORIENTED_EDGE('',*,*,#115,.F.);
#57=ORIENTED_EDGE('',*,*,#117,.T.);
#58=ORIENTED_EDGE('',*,*,#116,.F.);
#59=ORIENTED_EDGE('',*,*,#118,.T.);
#60=ORIENTED_EDGE('',*,*,#117,.F.);
#61=ORIENTED_EDGE('',*,*,#108,.T.);
#62=ORIENTED_EDGE('',*,*,#118,.F.);
#63=ORIENTED_EDGE('',*,*,#119,.T.);
#64=ORIENTED_EDGE('',*,*,#120,.F.);
#65=ORIENTED_EDGE('',*,*,#121,.T.);
#66=ORIENTED_EDGE('',*,*,#119,.F.);
#67=ORIENTED_EDGE('',*,*,#122,.T.);
#68=ORIENTED_EDGE('',*,*,#121,.F.);
#69=ORIENTED_EDGE('',*,*,#123,.T.);
#70=ORIENTED_EDGE('',*,*,#122,.F.);
#71=ORIENTED_EDGE('',*,*,#124,.T.);
#72=ORIENTED_EDGE('',*,*,#123,.F.);
#73=ORIENTED_EDGE('',*,*,#125,.T.);
#74=ORIENTED_EDGE('',*,*,#124,.F.);
#75=ORIENTED_EDGE('',*,*,#126,.T.);
#76=ORIENTED_EDGE('',*,*,#125,.F.);
#77=ORIENTED_EDGE('',*,*,#127,.T.);
#78=ORIENTED_EDGE('',*,*,#126,.F.);
#79=ORIENTED_EDGE('',*,*,#128,.T.);
#80=ORIENTED_EDGE('',*,*,#127,.F.);
#81=ORIENTED_EDGE('',*,*,#129,.T.);
#82=ORIENTED_EDGE('',*,*,#128,.F.);
#83=ORIENTED_EDGE('',*,*,#110,.T.);
#84=ORIENTED_EDGE('',*,*,#129,.F.);
#85=ORIENTED_EDGE('',*,*,#130,.T.);
#86=ORIENTED_EDGE('',*,*,#131,.F.);
#87=ORIENTED_EDGE('',*,*,#107,.T.);
#88=ORIENTED_EDGE('',*,*,#132,.F.);
#89=ORIENTED_EDGE('',*,*,#131,.T.);
#90=ORIENTED_EDGE('',*,*,#120,.T.);
#91=ORIENTED_EDGE('',*,*,#133,.F.);
#92=ORIENTED_EDGE('',*,*,#132,.T.);
#93=ORIENTED_EDGE('',*,*,#134,.T.);
#94=ORIENTED_EDGE('',*,*,#130,.F.);
#95=ORIENTED_EDGE('',*,*,#133,.T.);
#96=ORIENTED_EDGE('',*,*,#135,.F.);
#97=ORIENTED_EDGE('',*,*,#135,.T.);
#98=ORIENTED_EDGE('',*,*,#136,.F.);
#99=ORIENTED_EDGE('',*,*,#137,.T.);
#100=ORIENTED_EDGE('',*,*,#134,.F.);
#101=ORIENTED_EDGE('',*,*,#138,.T.);
#102=ORIENTED_EDGE('',*,*,#137,.F.);
#103=ORIENTED_EDGE('',*,*,#139,.T.);
#104=ORIENTED_EDGE('',*,*,#138,.F.);
#105=ORIENTED_EDGE('',*,*,#136,.T.);
#106=ORIENTED_EDGE('',*,*,#139,.F.);
#107=EDGE_CURVE('',#140,#140,#173,.F.);
#108=EDGE_CURVE('',#141,#141,#174,.T.);
#109=EDGE_CURVE('',#142,#142,#175,.T.);
#110=EDGE_CURVE('',#143,#143,#176,.T.);
#111=EDGE_CURVE('',#144,#144,#177,.T.);
#112=EDGE_CURVE('',#145,#145,#178,.T.);
#113=EDGE_CURVE('',#146,#146,#179,.T.);
#114=EDGE_CURVE('',#147,#147,#180,.T.);
#115=EDGE_CURVE('',#148,#148,#181,.T.);
#116=EDGE_CURVE('',#149,#149,#182,.T.);
#117=EDGE_CURVE('',#150,#150,#183,.T.);
#118=EDGE_CURVE('',#151,#151,#184,.T.);
#119=EDGE_CURVE('',#152,#152,#185,.T.);
#120=EDGE_CURVE('',#153,#153,#186,.T.);
#121=EDGE_CURVE('',#154,#154,#187,.T.);
#122=EDGE_CURVE('',#155,#155,#188,.T.);
#123=EDGE_CURVE('',#156,#156,#189,.T.);
#124=EDGE_CURVE('',#157,#157,#190,.T.);
#125=EDGE_CURVE('',#158,#158,#191,.T.);
#126=EDGE_CURVE('',#159,#159,#192,.T.);
#127=EDGE_CURVE('',#160,#160,#193,.T.);
#128=EDGE_CURVE('',#161,#161,#194,.T.);
#129=EDGE_CURVE('',#162,#162,#195,.T.);
#130=EDGE_CURVE('',#163,#163,#196,.T.);
#131=EDGE_CURVE('',#164,#164,#197,.T.);
#132=EDGE_CURVE('',#165,#165,#198,.T.);
#133=EDGE_CURVE('',#166,#166,#199,.T.);
#134=EDGE_CURVE('',#167,#167,#200,.T.);
#135=EDGE_CURVE('',#168,#168,#201,.T.);
#136=EDGE_CURVE('',#169,#169,#202,.T.);
#137=EDGE_CURVE('',#170,#170,#203,.T.);
#138=EDGE_CURVE('',#171,#171,#204,.T.);
#139=EDGE_CURVE('',#172,#172,#205,.T.);
#140=VERTEX_POINT('',#599);
#141=VERTEX_POINT('',#601);
#142=VERTEX_POINT('',#604);
#143=VERTEX_POINT('',#606);
#144=VERTEX_POINT('',#609);
#145=VERTEX_POINT('',#612);
#146=VERTEX_POINT('',#615);
#147=VERTEX_POINT('',#618);
#148=VERTEX_POINT('',#621);
#149=VERTEX_POINT('',#624);
#150=VERTEX_POINT('',#627);
#151=VERTEX_POINT('',#630);
#152=VERTEX_POINT('',#634);
#153=VERTEX_POINT('',#636);
#154=VERTEX_POINT('',#639);
#155=VERTEX_POINT('',#642);
#156=VERTEX_POINT('',#645);
#157=VERTEX_POINT('',#648);
#158=VERTEX_POINT('',#651);
#159=VERTEX_POINT('',#654);
#160=VERTEX_POINT('',#657);
#161=VERTEX_POINT('',#660);
#162=VERTEX_POINT('',#663);
#163=VERTEX_POINT('',#667);
#164=VERTEX_POINT('',#669);
#165=VERTEX_POINT('',#672);
#166=VERTEX_POINT('',#676);
#167=VERTEX_POINT('',#679);
#168=VERTEX_POINT('',#682);
#169=VERTEX_POINT('',#685);
#170=VERTEX_POINT('',#688);
#171=VERTEX_POINT('',#691);
#172=VERTEX_POINT('',#694);
#173=CIRCLE('',#397,33.25);
#174=CIRCLE('',#398,27.633);
#175=CIRCLE('',#400,54.);
#176=CIRCLE('',#401,50.);
#177=CIRCLE('',#403,54.);
#178=CIRCLE('',#405,47.);
#179=CIRCLE('',#407,46.5);
#180=CIRCLE('',#409,41.5);
#181=CIRCLE('',#411,33.35);
#182=CIRCLE('',#413,25.);
#183=CIRCLE('',#415,23.642);
#184=CIRCLE('',#417,26.642);
#185=CIRCLE('',#420,39.);
#186=CIRCLE('',#421,37.);
#187=CIRCLE('',#423,42.5);
#188=CIRCLE('',#425,42.5);
#189=CIRCLE('',#427,44.);
#190=CIRCLE('',#429,44.);
#191=CIRCLE('',#431,41.);
#192=CIRCLE('',#433,44.);
#193=CIRCLE('',#435,53.);
#194=CIRCLE('',#437,53.);
#195=CIRCLE('',#439,50.);
#196=CIRCLE('',#442,35.25);
#197=CIRCLE('',#443,37.);
#198=CIRCLE('',#445,33.25);
#199=CIRCLE('',#448,33.25);
#200=CIRCLE('',#450,35.25);
#201=CIRCLE('',#452,31.5);
#202=CIRCLE('',#454,31.5);
#203=CIRCLE('',#456,35.25);
#204=CIRCLE('',#458,33.5);
#205=CIRCLE('',#460,33.5);
#206=EDGE_LOOP('',(#41));
#207=EDGE_LOOP('',(#42));
#208=EDGE_LOOP('',(#43));
#209=EDGE_LOOP('',(#44));
#210=EDGE_LOOP('',(#45));
#211=EDGE_LOOP('',(#46));
#212=EDGE_LOOP('',(#47));
#213=EDGE_LOOP('',(#48));
#214=EDGE_LOOP('',(#49));
#215=EDGE_LOOP('',(#50));
#216=EDGE_LOOP('',(#51));
#217=EDGE_LOOP('',(#52));
#218=EDGE_LOOP('',(#53));
#219=EDGE_LOOP('',(#54));
#220=EDGE_LOOP('',(#55));
#221=EDGE_LOOP('',(#56));
#222=EDGE_LOOP('',(#57));
#223=EDGE_LOOP('',(#58));
#224=EDGE_LOOP('',(#59));
#225=EDGE_LOOP('',(#60));
#226=EDGE_LOOP('',(#61));
#227=EDGE_LOOP('',(#62));
#228=EDGE_LOOP('',(#63));
#229=EDGE_LOOP('',(#64));
#230=EDGE_LOOP('',(#65));
#231=EDGE_LOOP('',(#66));
#232=EDGE_LOOP('',(#67));
#233=EDGE_LOOP('',(#68));
#234=EDGE_LOOP('',(#69));
#235=EDGE_LOOP('',(#70));
#236=EDGE_LOOP('',(#71));
#237=EDGE_LOOP('',(#72));
#238=EDGE_LOOP('',(#73));
#239=EDGE_LOOP('',(#74));
#240=EDGE_LOOP('',(#75));
#241=EDGE_LOOP('',(#76));
#242=EDGE_LOOP('',(#77));
#243=EDGE_LOOP('',(#78));
#244=EDGE_LOOP('',(#79));
#245=EDGE_LOOP('',(#80));
#246=EDGE_LOOP('',(#81));
#247=EDGE_LOOP('',(#82));
#248=EDGE_LOOP('',(#83));
#249=EDGE_LOOP('',(#84));
#250=EDGE_LOOP('',(#85));
#251=EDGE_LOOP('',(#86));
#252=EDGE_LOOP('',(#87));
#253=EDGE_LOOP('',(#88));
#254=EDGE_LOOP('',(#89));
#255=EDGE_LOOP('',(#90));
#256=EDGE_LOOP('',(#91));
#257=EDGE_LOOP('',(#92));
#258=EDGE_LOOP('',(#93));
#259=EDGE_LOOP('',(#94));
#260=EDGE_LOOP('',(#95));
#261=EDGE_LOOP('',(#96));
#262=EDGE_LOOP('',(#97));
#263=EDGE_LOOP('',(#98));
#264=EDGE_LOOP('',(#99));
#265=EDGE_LOOP('',(#100));
#266=EDGE_LOOP('',(#101));
#267=EDGE_LOOP('',(#102));
#268=EDGE_LOOP('',(#103));
#269=EDGE_LOOP('',(#104));
#270=EDGE_LOOP('',(#105));
#271=EDGE_LOOP('',(#106));
#272=FACE_BOUND('',#206,.T.);
#273=FACE_BOUND('',#207,.T.);
#274=FACE_BOUND('',#208,.T.);
#275=FACE_BOUND('',#209,.T.);
#276=FACE_BOUND('',#210,.T.);
#277=FACE_BOUND('',#211,.T.);
#278=FACE_BOUND('',#212,.T.);
#279=FACE_BOUND('',#213,.T.);
#280=FACE_BOUND('',#214,.T.);
#281=FACE_BOUND('',#215,.T.);
#282=FACE_BOUND('',#216,.T.);
#283=FACE_BOUND('',#217,.T.);
#284=FACE_BOUND('',#218,.T.);
#285=FACE_BOUND('',#219,.T.);
#286=FACE_BOUND('',#220,.T.);
#287=FACE_BOUND('',#221,.T.);
#288=FACE_BOUND('',#222,.T.);
#289=FACE_BOUND('',#223,.T.);
#290=FACE_BOUND('',#224,.T.);
#291=FACE_BOUND('',#225,.T.);
#292=FACE_BOUND('',#226,.T.);
#293=FACE_BOUND('',#227,.T.);
#294=FACE_BOUND('',#228,.T.);
#295=FACE_BOUND('',#229,.T.);
#296=FACE_BOUND('',#230,.T.);
#297=FACE_BOUND('',#231,.T.);
#298=FACE_BOUND('',#232,.T.);
#299=FACE_BOUND('',#233,.T.);
#300=FACE_BOUND('',#234,.T.);
#301=FACE_BOUND('',#235,.T.);
#302=FACE_BOUND('',#236,.T.);
#303=FACE_BOUND('',#237,.T.);
#304=FACE_BOUND('',#238,.T.);
#305=FACE_BOUND('',#239,.T.);
#306=FACE_BOUND('',#240,.T.);
#307=FACE_BOUND('',#241,.T.);
#308=FACE_BOUND('',#242,.T.);
#309=FACE_BOUND('',#243,.T.);
#310=FACE_BOUND('',#244,.T.);
#311=FACE_BOUND('',#245,.T.);
#312=FACE_BOUND('',#246,.T.);
#313=FACE_BOUND('',#247,.T.);
#314=FACE_BOUND('',#248,.T.);
#315=FACE_BOUND('',#249,.T.);
#316=FACE_BOUND('',#250,.T.);
#317=FACE_BOUND('',#251,.T.);
#318=FACE_BOUND('',#252,.T.);
#319=FACE_BOUND('',#253,.T.);
#320=FACE_BOUND('',#254,.T.);
#321=FACE_BOUND('',#255,.T.);
#322=FACE_BOUND('',#256,.T.);
#323=FACE_BOUND('',#257,.T.);
#324=FACE_BOUND('',#258,.T.);
#325=FACE_BOUND('',#259,.T.);
#326=FACE_BOUND('',#260,.T.);
#327=FACE_BOUND('',#261,.T.);
#328=FACE_BOUND('',#262,.T.);
#329=FACE_BOUND('',#263,.T.);
#330=FACE_BOUND('',#264,.T.);
#331=FACE_BOUND('',#265,.T.);
#332=FACE_BOUND('',#266,.T.);
#333=FACE_BOUND('',#267,.T.);
#334=FACE_BOUND('',#268,.T.);
#335=FACE_BOUND('',#269,.T.);
#336=FACE_BOUND('',#270,.T.);
#337=FACE_BOUND('',#271,.T.);
#338=PLANE('',#396);
#339=PLANE('',#399);
#340=PLANE('',#404);
#341=PLANE('',#408);
#342=PLANE('',#412);
#343=PLANE('',#416);
#344=PLANE('',#419);
#345=PLANE('',#426);
#346=PLANE('',#441);
#347=PLANE('',#451);
#348=PLANE('',#457);
#349=PLANE('',#461);
#350=ADVANCED_FACE('',(#272,#273),#338,.T.);
#351=ADVANCED_FACE('',(#274,#275),#339,.T.);
#352=ADVANCED_FACE('',(#276,#277),#31,.T.);
#353=ADVANCED_FACE('',(#278,#279),#340,.T.);
#354=ADVANCED_FACE('',(#280,#281),#22,.F.);
#355=ADVANCED_FACE('',(#282,#283),#341,.T.);
#356=ADVANCED_FACE('',(#284,#285),#23,.F.);
#357=ADVANCED_FACE('',(#286,#287),#342,.T.);
#358=ADVANCED_FACE('',(#288,#289),#24,.F.);
#359=ADVANCED_FACE('',(#290,#291),#343,.T.);
#360=ADVANCED_FACE('',(#292,#293),#25,.T.);
#361=ADVANCED_FACE('',(#294,#295),#344,.T.);
#362=ADVANCED_FACE('',(#296,#297),#26,.T.);
#363=ADVANCED_FACE('',(#298,#299),#32,.T.);
#364=ADVANCED_FACE('',(#300,#301),#345,.T.);
#365=ADVANCED_FACE('',(#302,#303),#33,.T.);
#366=ADVANCED_FACE('',(#304,#305),#27,.T.);
#367=ADVANCED_FACE('',(#306,#307),#28,.T.);
#368=ADVANCED_FACE('',(#308,#309),#29,.T.);
#369=ADVANCED_FACE('',(#310,#311),#34,.T.);
#370=ADVANCED_FACE('',(#312,#313),#30,.T.);
#371=ADVANCED_FACE('',(#314,#315),#35,.T.);
#372=ADVANCED_FACE('',(#316,#317),#346,.T.);
#373=ADVANCED_FACE('',(#318,#319),#36,.F.);
#374=ADVANCED_FACE('',(#320,#321),#37,.T.);
#375=ADVANCED_FACE('',(#322,#323),#20,.F.);
#376=ADVANCED_FACE('',(#324,#325),#21,.T.);
#377=ADVANCED_FACE('',(#326,#327),#347,.T.);
#378=ADVANCED_FACE('',(#328,#329),#38,.F.);
#379=ADVANCED_FACE('',(#330,#331),#39,.T.);
#380=ADVANCED_FACE('',(#332,#333),#348,.T.);
#381=ADVANCED_FACE('',(#334,#335),#40,.T.);
#382=ADVANCED_FACE('',(#336,#337),#349,.T.);
#383=CLOSED_SHELL('',(#350,#351,#352,#353,#354,#355,#356,#357,#358,#359,
#360,#361,#362,#363,#364,#365,#366,#367,#368,#369,#370,#371,#372,#373,#374,
#375,#376,#377,#378,#379,#380,#381,#382));
#384=STYLED_ITEM('',(#385),#392);
#385=PRESENTATION_STYLE_ASSIGNMENT((#386));
#386=SURFACE_STYLE_USAGE(.BOTH.,#387);
#387=SURFACE_SIDE_STYLE('',(#388));
#388=SURFACE_STYLE_FILL_AREA(#389);
#389=FILL_AREA_STYLE('',(#390));
#390=FILL_AREA_STYLE_COLOUR('',#391);
#391=COLOUR_RGB('',0.689999997615814,0.689999997615814,0.689999997615814);
#392=MANIFOLD_SOLID_BREP('482069001(1)',#383);
#393=SHAPE_DEFINITION_REPRESENTATION(#702,#394);
#394=SHAPE_REPRESENTATION('482069001(1)',(#395),#697);
#395=AXIS2_PLACEMENT_3D('',#596,#462,#463);
#396=AXIS2_PLACEMENT_3D('',#597,#464,#465);
#397=AXIS2_PLACEMENT_3D('',#598,#466,#467);
#398=AXIS2_PLACEMENT_3D('',#600,#468,#469);
#399=AXIS2_PLACEMENT_3D('',#602,#470,#471);
#400=AXIS2_PLACEMENT_3D('',#603,#472,#473);
#401=AXIS2_PLACEMENT_3D('',#605,#474,#475);
#402=AXIS2_PLACEMENT_3D('',#607,#476,#477);
#403=AXIS2_PLACEMENT_3D('',#608,#478,#479);
#404=AXIS2_PLACEMENT_3D('',#610,#480,#481);
#405=AXIS2_PLACEMENT_3D('',#611,#482,#483);
#406=AXIS2_PLACEMENT_3D('',#613,#484,#485);
#407=AXIS2_PLACEMENT_3D('',#614,#486,#487);
#408=AXIS2_PLACEMENT_3D('',#616,#488,#489);
#409=AXIS2_PLACEMENT_3D('',#617,#490,#491);
#410=AXIS2_PLACEMENT_3D('',#619,#492,#493);
#411=AXIS2_PLACEMENT_3D('',#620,#494,#495);
#412=AXIS2_PLACEMENT_3D('',#622,#496,#497);
#413=AXIS2_PLACEMENT_3D('',#623,#498,#499);
#414=AXIS2_PLACEMENT_3D('',#625,#500,#501);
#415=AXIS2_PLACEMENT_3D('',#626,#502,#503);
#416=AXIS2_PLACEMENT_3D('',#628,#504,#505);
#417=AXIS2_PLACEMENT_3D('',#629,#506,#507);
#418=AXIS2_PLACEMENT_3D('',#631,#508,#509);
#419=AXIS2_PLACEMENT_3D('',#632,#510,#511);
#420=AXIS2_PLACEMENT_3D('',#633,#512,#513);
#421=AXIS2_PLACEMENT_3D('',#635,#514,#515);
#422=AXIS2_PLACEMENT_3D('',#637,#516,#517);
#423=AXIS2_PLACEMENT_3D('',#638,#518,#519);
#424=AXIS2_PLACEMENT_3D('',#640,#520,#521);
#425=AXIS2_PLACEMENT_3D('',#641,#522,#523);
#426=AXIS2_PLACEMENT_3D('',#643,#524,#525);
#427=AXIS2_PLACEMENT_3D('',#644,#526,#527);
#428=AXIS2_PLACEMENT_3D('',#646,#528,#529);
#429=AXIS2_PLACEMENT_3D('',#647,#530,#531);
#430=AXIS2_PLACEMENT_3D('',#649,#532,#533);
#431=AXIS2_PLACEMENT_3D('',#650,#534,#535);
#432=AXIS2_PLACEMENT_3D('',#652,#536,#537);
#433=AXIS2_PLACEMENT_3D('',#653,#538,#539);
#434=AXIS2_PLACEMENT_3D('',#655,#540,#541);
#435=AXIS2_PLACEMENT_3D('',#656,#542,#543);
#436=AXIS2_PLACEMENT_3D('',#658,#544,#545);
#437=AXIS2_PLACEMENT_3D('',#659,#546,#547);
#438=AXIS2_PLACEMENT_3D('',#661,#548,#549);
#439=AXIS2_PLACEMENT_3D('',#662,#550,#551);
#440=AXIS2_PLACEMENT_3D('',#664,#552,#553);
#441=AXIS2_PLACEMENT_3D('',#665,#554,#555);
#442=AXIS2_PLACEMENT_3D('',#666,#556,#557);
#443=AXIS2_PLACEMENT_3D('',#668,#558,#559);
#444=AXIS2_PLACEMENT_3D('',#670,#560,#561);
#445=AXIS2_PLACEMENT_3D('',#671,#562,#563);
#446=AXIS2_PLACEMENT_3D('',#673,#564,#565);
#447=AXIS2_PLACEMENT_3D('',#674,#566,#567);
#448=AXIS2_PLACEMENT_3D('',#675,#568,#569);
#449=AXIS2_PLACEMENT_3D('',#677,#570,#571);
#450=AXIS2_PLACEMENT_3D('',#678,#572,#573);
#451=AXIS2_PLACEMENT_3D('',#680,#574,#575);
#452=AXIS2_PLACEMENT_3D('',#681,#576,#577);
#453=AXIS2_PLACEMENT_3D('',#683,#578,#579);
#454=AXIS2_PLACEMENT_3D('',#684,#580,#581);
#455=AXIS2_PLACEMENT_3D('',#686,#582,#583);
#456=AXIS2_PLACEMENT_3D('',#687,#584,#585);
#457=AXIS2_PLACEMENT_3D('',#689,#586,#587);
#458=AXIS2_PLACEMENT_3D('',#690,#588,#589);
#459=AXIS2_PLACEMENT_3D('',#692,#590,#591);
#460=AXIS2_PLACEMENT_3D('',#693,#592,#593);
#461=AXIS2_PLACEMENT_3D('',#695,#594,#595);
#462=DIRECTION('',(0.,0.,1.));
#463=DIRECTION('',(1.,0.,0.));
#464=DIRECTION('',(0.,0.,-1.));
#465=DIRECTION('',(-1.,0.,0.));
#466=DIRECTION('',(0.,0.,-1.));
#467=DIRECTION('',(-1.,0.,0.));
#468=DIRECTION('',(0.,0.,-1.));
#469=DIRECTION('',(-1.,0.,0.));
#470=DIRECTION('',(0.,0.,-1.));
#471=DIRECTION('',(-1.,0.,0.));
#472=DIRECTION('',(0.,0.,-1.));
#473=DIRECTION('',(-1.,0.,0.));
#474=DIRECTION('',(0.,0.,-1.));
#475=DIRECTION('',(-1.,0.,0.));
#476=DIRECTION('',(0.,0.,-1.));
#477=DIRECTION('',(-1.,0.,0.));
#478=DIRECTION('',(0.,0.,-1.));
#479=DIRECTION('',(-1.,0.,0.));
#480=DIRECTION('',(0.,0.,1.));
#481=DIRECTION('',(1.,0.,0.));
#482=DIRECTION('',(0.,0.,-1.));
#483=DIRECTION('',(-1.,0.,0.));
#484=DIRECTION('',(0.,0.,1.));
#485=DIRECTION('',(1.,0.,0.));
#486=DIRECTION('',(0.,0.,-1.));
#487=DIRECTION('',(-1.,0.,0.));
#488=DIRECTION('',(0.,0.,1.));
#489=DIRECTION('',(1.,0.,0.));
#490=DIRECTION('',(0.,0.,-1.));
#491=DIRECTION('',(-1.,0.,0.));
#492=DIRECTION('',(0.,0.,1.));
#493=DIRECTION('',(1.,0.,0.));
#494=DIRECTION('',(0.,0.,-1.));
#495=DIRECTION('',(-1.,0.,0.));
#496=DIRECTION('',(0.,0.,1.));
#497=DIRECTION('',(1.,0.,0.));
#498=DIRECTION('',(0.,0.,-1.));
#499=DIRECTION('',(-1.,0.,0.));
#500=DIRECTION('',(0.,0.,1.));
#501=DIRECTION('',(1.,0.,0.));
#502=DIRECTION('',(0.,0.,-1.));
#503=DIRECTION('',(-1.,0.,0.));
#504=DIRECTION('',(0.,0.,-1.));
#505=DIRECTION('',(-1.,0.,0.));
#506=DIRECTION('',(0.,0.,-1.));
#507=DIRECTION('',(-1.,0.,0.));
#508=DIRECTION('',(0.,0.,1.));
#509=DIRECTION('',(1.,0.,0.));
#510=DIRECTION('',(0.,0.,-1.));
#511=DIRECTION('',(-1.,0.,0.));
#512=DIRECTION('',(0.,0.,-1.));
#513=DIRECTION('',(-1.,0.,0.));
#514=DIRECTION('',(0.,0.,-1.));
#515=DIRECTION('',(-1.,0.,0.));
#516=DIRECTION('',(0.,0.,1.));
#517=DIRECTION('',(1.,0.,0.));
#518=DIRECTION('',(0.,0.,-1.));
#519=DIRECTION('',(-1.,0.,0.));
#520=DIRECTION('',(0.,0.,-1.));
#521=DIRECTION('',(-1.,0.,0.));
#522=DIRECTION('',(0.,0.,-1.));
#523=DIRECTION('',(-1.,0.,0.));
#524=DIRECTION('',(0.,0.,-1.));
#525=DIRECTION('',(-1.,0.,0.));
#526=DIRECTION('',(0.,0.,-1.));
#527=DIRECTION('',(-1.,0.,0.));
#528=DIRECTION('',(0.,0.,-1.));
#529=DIRECTION('',(-1.,0.,0.));
#530=DIRECTION('',(0.,0.,-1.));
#531=DIRECTION('',(-1.,0.,0.));
#532=DIRECTION('',(0.,0.,-1.));
#533=DIRECTION('',(-1.,0.,0.));
#534=DIRECTION('',(0.,0.,-1.));
#535=DIRECTION('',(-1.,0.,0.));
#536=DIRECTION('',(0.,0.,1.));
#537=DIRECTION('',(1.,0.,0.));
#538=DIRECTION('',(0.,0.,-1.));
#539=DIRECTION('',(-1.,0.,0.));
#540=DIRECTION('',(0.,0.,1.));
#541=DIRECTION('',(1.,0.,0.));
#542=DIRECTION('',(0.,0.,-1.));
#543=DIRECTION('',(-1.,0.,0.));
#544=DIRECTION('',(0.,0.,-1.));
#545=DIRECTION('',(-1.,0.,0.));
#546=DIRECTION('',(0.,0.,-1.));
#547=DIRECTION('',(-1.,0.,0.));
#548=DIRECTION('',(0.,0.,-1.));
#549=DIRECTION('',(-1.,0.,0.));
#550=DIRECTION('',(0.,0.,-1.));
#551=DIRECTION('',(-1.,0.,0.));
#552=DIRECTION('',(0.,0.,-1.));
#553=DIRECTION('',(-1.,0.,0.));
#554=DIRECTION('',(0.,0.,-1.));
#555=DIRECTION('',(-1.,0.,0.));
#556=DIRECTION('',(0.,0.,1.));
#557=DIRECTION('',(1.,0.,0.));
#558=DIRECTION('',(0.,0.,1.));
#559=DIRECTION('',(1.,0.,0.));
#560=DIRECTION('',(0.,0.,1.));
#561=DIRECTION('',(1.,0.,0.));
#562=DIRECTION('',(0.,0.,1.));
#563=DIRECTION('',(1.,0.,0.));
#564=DIRECTION('',(0.,0.,1.));
#565=DIRECTION('',(1.,0.,0.));
#566=DIRECTION('',(0.,1.,0.));
#567=DIRECTION('',(0.,0.,1.));
#568=DIRECTION('',(-0.999847695156391,0.,0.0174524064372836));
#569=DIRECTION('',(0.0174524064372836,0.,0.999847695156391));
#570=DIRECTION('',(0.,1.,0.));
#571=DIRECTION('',(0.,0.,1.));
#572=DIRECTION('',(-0.999847695156391,0.,0.0174524064372836));
#573=DIRECTION('',(0.0174524064372836,0.,0.999847695156391));
#574=DIRECTION('',(-0.999847695156391,0.,0.0174524064372835));
#575=DIRECTION('',(0.0174524064372835,0.,0.999847695156391));
#576=DIRECTION('',(-0.999847695156391,0.,0.0174524064372835));
#577=DIRECTION('',(0.0174524064372835,0.,0.999847695156391));
#578=DIRECTION('',(-0.999847695156391,0.,0.0174524064372835));
#579=DIRECTION('',(0.0174524064372835,0.,0.999847695156391));
#580=DIRECTION('',(-0.999847695156391,0.,0.0174524064372835));
#581=DIRECTION('',(0.0174524064372835,0.,0.999847695156391));
#582=DIRECTION('',(-0.999847695156391,0.,0.0174524064372835));
#583=DIRECTION('',(0.0174524064372835,0.,0.999847695156391));
#584=DIRECTION('',(-0.999847695156391,0.,0.0174524064372835));
#585=DIRECTION('',(0.0174524064372835,0.,0.999847695156391));
#586=DIRECTION('',(0.999847695156391,0.,-0.0174524064372835));
#587=DIRECTION('',(-0.0174524064372835,0.,-0.999847695156391));
#588=DIRECTION('',(-0.999847695156391,0.,0.0174524064372835));
#589=DIRECTION('',(0.0174524064372835,0.,0.999847695156391));
#590=DIRECTION('',(-0.999847695156391,0.,0.0174524064372835));
#591=DIRECTION('',(0.0174524064372835,0.,0.999847695156391));
#592=DIRECTION('',(-0.999847695156391,0.,0.0174524064372835));
#593=DIRECTION('',(0.0174524064372835,0.,0.999847695156391));
#594=DIRECTION('',(0.999847695156391,0.,-0.0174524064372835));
#595=DIRECTION('',(-0.0174524064372835,0.,-0.999847695156391));
#596=CARTESIAN_POINT('',(0.,0.,0.));
#597=CARTESIAN_POINT('',(-27.633,0.,-40.));
#598=CARTESIAN_POINT('',(0.,0.,-40.));
#599=CARTESIAN_POINT('',(-33.25,0.,-40.));
#600=CARTESIAN_POINT('',(0.,0.,-40.));
#601=CARTESIAN_POINT('',(-27.633,0.,-40.));
#602=CARTESIAN_POINT('',(-50.,0.,-6.00000000000001));
#603=CARTESIAN_POINT('',(0.,0.,-6.00000000000001));
#604=CARTESIAN_POINT('',(-54.,0.,-6.00000000000001));
#605=CARTESIAN_POINT('',(0.,0.,-6.00000000000001));
#606=CARTESIAN_POINT('',(-50.,0.,-6.00000000000001));
#607=CARTESIAN_POINT('',(0.,0.,-5.));
#608=CARTESIAN_POINT('',(0.,0.,-6.93889390390723E-15));
#609=CARTESIAN_POINT('',(-54.,0.,-6.93889390390723E-15));
#610=CARTESIAN_POINT('',(-54.,0.,-7.02216063075412E-15));
#611=CARTESIAN_POINT('',(0.,0.,-6.93889390390723E-15));
#612=CARTESIAN_POINT('',(-47.,0.,-6.93889390390723E-15));
#613=CARTESIAN_POINT('',(0.,0.,-6.93889390390723E-15));
#614=CARTESIAN_POINT('',(0.,0.,-10.));
#615=CARTESIAN_POINT('',(-46.5,0.,-10.));
#616=CARTESIAN_POINT('',(-46.5,0.,-10.));
#617=CARTESIAN_POINT('',(0.,0.,-10.));
#618=CARTESIAN_POINT('',(-41.5,0.,-10.));
#619=CARTESIAN_POINT('',(0.,0.,-10.));
#620=CARTESIAN_POINT('',(0.,0.,-34.45));
#621=CARTESIAN_POINT('',(-33.35,0.,-34.45));
#622=CARTESIAN_POINT('',(-33.35,0.,-34.45));
#623=CARTESIAN_POINT('',(0.,0.,-34.45));
#624=CARTESIAN_POINT('',(-25.,0.,-34.45));
#625=CARTESIAN_POINT('',(0.,0.,-34.45));
#626=CARTESIAN_POINT('',(0.,0.,-55.));
#627=CARTESIAN_POINT('',(-23.642,0.,-55.));
#628=CARTESIAN_POINT('',(-23.642,0.,-55.));
#629=CARTESIAN_POINT('',(0.,0.,-55.));
#630=CARTESIAN_POINT('',(-26.642,0.,-55.));
#631=CARTESIAN_POINT('',(0.,0.,-55.));
#632=CARTESIAN_POINT('',(-27.633,0.,-40.));
#633=CARTESIAN_POINT('',(0.,0.,-40.));
#634=CARTESIAN_POINT('',(-39.,0.,-40.));
#635=CARTESIAN_POINT('',(0.,0.,-40.));
#636=CARTESIAN_POINT('',(-37.,0.,-40.));
#637=CARTESIAN_POINT('',(0.,0.,-40.));
#638=CARTESIAN_POINT('',(0.,0.,-37.375));
#639=CARTESIAN_POINT('',(-42.5,0.,-37.375));
#640=CARTESIAN_POINT('',(0.,0.,-5.));
#641=CARTESIAN_POINT('',(0.,0.,-30.));
#642=CARTESIAN_POINT('',(-42.5,0.,-30.));
#643=CARTESIAN_POINT('',(-42.5,0.,-30.));
#644=CARTESIAN_POINT('',(0.,0.,-30.));
#645=CARTESIAN_POINT('',(-44.,0.,-30.));
#646=CARTESIAN_POINT('',(0.,0.,-5.));
#647=CARTESIAN_POINT('',(0.,0.,-28.));
#648=CARTESIAN_POINT('',(-44.,0.,-28.));
#649=CARTESIAN_POINT('',(0.,0.,-28.));
#650=CARTESIAN_POINT('',(0.,0.,-25.));
#651=CARTESIAN_POINT('',(-41.,0.,-25.));
#652=CARTESIAN_POINT('',(0.,0.,-25.));
#653=CARTESIAN_POINT('',(0.,0.,-16.));
#654=CARTESIAN_POINT('',(-44.,0.,-16.));
#655=CARTESIAN_POINT('',(0.,0.,-16.));
#656=CARTESIAN_POINT('',(0.,0.,-15.));
#657=CARTESIAN_POINT('',(-53.,0.,-15.));
#658=CARTESIAN_POINT('',(0.,0.,-5.));
#659=CARTESIAN_POINT('',(0.,0.,-13.));
#660=CARTESIAN_POINT('',(-53.,0.,-13.));
#661=CARTESIAN_POINT('',(0.,0.,-13.));
#662=CARTESIAN_POINT('',(0.,0.,-10.));
#663=CARTESIAN_POINT('',(-50.,0.,-10.));
#664=CARTESIAN_POINT('',(0.,0.,-5.));
#665=CARTESIAN_POINT('',(37.,0.,-42.));
#666=CARTESIAN_POINT('',(0.,0.,-42.));
#667=CARTESIAN_POINT('',(35.25,0.,-42.));
#668=CARTESIAN_POINT('',(0.,0.,-42.));
#669=CARTESIAN_POINT('',(37.,0.,-42.));
#670=CARTESIAN_POINT('',(0.,0.,-40.));
#671=CARTESIAN_POINT('',(0.,0.,-42.));
#672=CARTESIAN_POINT('',(33.25,0.,-42.));
#673=CARTESIAN_POINT('',(0.,0.,-40.));
#674=CARTESIAN_POINT('',(43.25,0.,-42.));
#675=CARTESIAN_POINT('',(42.4951834215875,0.,-85.2434128155139));
#676=CARTESIAN_POINT('',(43.0754759356272,0.,-51.9984769515639));
#677=CARTESIAN_POINT('',(43.25,0.,-42.));
#678=CARTESIAN_POINT('',(42.4951834215875,0.,-85.2434128155139));
#679=CARTESIAN_POINT('',(43.1103807485017,0.,-49.9987815612511));
#680=CARTESIAN_POINT('',(43.0449342243619,0.,-53.7482104180876));
#681=CARTESIAN_POINT('',(42.4951834215875,0.,-85.2434128155139));
#682=CARTESIAN_POINT('',(43.0449342243619,0.,-53.7482104180876));
#683=CARTESIAN_POINT('',(42.4951834215875,0.,-85.2434128155139));
#684=CARTESIAN_POINT('',(81.4892435326867,0.,-85.924056666568));
#685=CARTESIAN_POINT('',(82.0389943354612,0.,-54.4288542691416));
#686=CARTESIAN_POINT('',(42.4951834215875,0.,-85.2434128155139));
#687=CARTESIAN_POINT('',(45.4947265070567,0.,-85.2957700348258));
#688=CARTESIAN_POINT('',(46.1099238339709,0.,-50.051138780563));
#689=CARTESIAN_POINT('',(46.1099238339709,0.,-50.051138780563));
#690=CARTESIAN_POINT('',(45.4947265070567,0.,-85.2957700348258));
#691=CARTESIAN_POINT('',(46.0793821227057,0.,-51.8008722470867));
#692=CARTESIAN_POINT('',(42.4951834215875,0.,-85.2434128155139));
#693=CARTESIAN_POINT('',(81.4892435326867,0.,-85.924056666568));
#694=CARTESIAN_POINT('',(82.0738991483357,0.,-52.4291588788289));
#695=CARTESIAN_POINT('',(82.0738991483358,0.,-52.4291588788289));
#696=MECHANICAL_DESIGN_GEOMETRIC_PRESENTATION_REPRESENTATION('',(#384),
#697);
#697=(
GEOMETRIC_REPRESENTATION_CONTEXT(3)
GLOBAL_UNCERTAINTY_ASSIGNED_CONTEXT((#698))
GLOBAL_UNIT_ASSIGNED_CONTEXT((#701,#700,#699))
REPRESENTATION_CONTEXT('482069001(1)','TOP_LEVEL_ASSEMBLY_PART')
);
#698=UNCERTAINTY_MEASURE_WITH_UNIT(LENGTH_MEASURE(0.005),#701,
'DISTANCE_ACCURACY_VALUE','Maximum Tolerance applied to model');
#699=(
NAMED_UNIT(*)
SI_UNIT($,.STERADIAN.)
SOLID_ANGLE_UNIT()
);
#700=(
NAMED_UNIT(*)
PLANE_ANGLE_UNIT()
SI_UNIT($,.RADIAN.)
);
#701=(
LENGTH_UNIT()
NAMED_UNIT(*)
SI_UNIT(.MILLI.,.METRE.)
);
#702=PRODUCT_DEFINITION_SHAPE('','',#703);
#703=PRODUCT_DEFINITION('','',#705,#704);
#704=PRODUCT_DEFINITION_CONTEXT('',#711,'design');
#705=PRODUCT_DEFINITION_FORMATION_WITH_SPECIFIED_SOURCE('','',#707,
 .NOT_KNOWN.);
#706=PRODUCT_RELATED_PRODUCT_CATEGORY('','',(#707));
#707=PRODUCT('482069001(1)','482069001(1)','482069001(1)',(#709));
#708=PRODUCT_CATEGORY('','');
#709=PRODUCT_CONTEXT('',#711,'mechanical');
#710=APPLICATION_PROTOCOL_DEFINITION('international standard',
'automotive_design',2010,#711);
#711=APPLICATION_CONTEXT(
'core data for automotive mechanical design processes');
ENDSEC;
END-ISO-10303-21;
