ISO-10303-21;
HEADER;
/* Generated by software containing ST-Developer
 * from STEP Tools, Inc. (www.steptools.com) 
 */
/* OPTION: using custom renumber hook */

FILE_DESCRIPTION(
/* description */ ('STEP AP214'),
/* implementation_level */ '2;1');

FILE_NAME(
/* name */ '482060001(1)',
/* time_stamp */ '2022-12-23T08:15:35+01:00',
/* author */ ('License CC BY-ND 4.0'),
/* organization */ ('CADENAS'),
/* preprocessor_version */ 'ST-DEVELOPER v18.102',
/* originating_system */ 'PARTsolutions',
/* authorisation */ '  ');

FILE_SCHEMA (('AUTOMOTIVE_DESIGN {1 0 10303 214 3 1 1}'));
ENDSEC;

DATA;
#10=PROPERTY_DEFINITION_REPRESENTATION(#14,#12);
#11=PROPERTY_DEFINITION_REPRESENTATION(#15,#13);
#12=REPRESENTATION('',(#16),#568);
#13=REPRESENTATION('',(#17),#568);
#14=PROPERTY_DEFINITION('pmi validation property','',#577);
#15=PROPERTY_DEFINITION('pmi validation property','',#577);
#16=VALUE_REPRESENTATION_ITEM('number of annotations',COUNT_MEASURE(0.));
#17=VALUE_REPRESENTATION_ITEM('number of views',COUNT_MEASURE(0.));
#18=CONICAL_SURFACE('',#347,47.,0.0499583957219435);
#19=CONICAL_SURFACE('',#351,41.5,0.321750554396642);
#20=CONICAL_SURFACE('',#355,25.,0.0659652589434212);
#21=CONICAL_SURFACE('',#359,24.,0.0659587263801631);
#22=CONICAL_SURFACE('',#363,39.,0.927295218001612);
#23=CONICAL_SURFACE('',#365,43.,0.0713074647852903);
#24=CONICAL_SURFACE('',#371,44.,0.785398163397449);
#25=CONICAL_SURFACE('',#373,41.,0.321750554396642);
#26=CONICAL_SURFACE('',#375,44.,1.460139105621);
#27=CONICAL_SURFACE('',#379,53.,0.785398163397447);
#28=CONTEXT_DEPENDENT_SHAPE_REPRESENTATION(#32,#579);
#29=CONTEXT_DEPENDENT_SHAPE_REPRESENTATION(#33,#581);
#30=NEXT_ASSEMBLY_USAGE_OCCURRENCE('NAUO1','482060001(1,85)_P2',
'482060001(1,85)_P2',#582,#583,'');
#31=NEXT_ASSEMBLY_USAGE_OCCURRENCE('NAUO2','482060001(1)_P1',
'482060001(1)_P1',#582,#584,'');
#32=(
REPRESENTATION_RELATIONSHIP(' ',' ',#328,#327)
REPRESENTATION_RELATIONSHIP_WITH_TRANSFORMATION(#34)
SHAPE_REPRESENTATION_RELATIONSHIP()
);
#33=(
REPRESENTATION_RELATIONSHIP(' ',' ',#329,#327)
REPRESENTATION_RELATIONSHIP_WITH_TRANSFORMATION(#35)
SHAPE_REPRESENTATION_RELATIONSHIP()
);
#34=ITEM_DEFINED_TRANSFORMATION(' ',' ',#330,#339);
#35=ITEM_DEFINED_TRANSFORMATION(' ',' ',#330,#382);
#36=SHAPE_REPRESENTATION_RELATIONSHIP('','',#328,#38);
#37=SHAPE_REPRESENTATION_RELATIONSHIP('','',#329,#39);
#38=ADVANCED_BREP_SHAPE_REPRESENTATION('',(#322),#569);
#39=ADVANCED_BREP_SHAPE_REPRESENTATION('',(#323),#570);
#40=CYLINDRICAL_SURFACE('',#334,43.2);
#41=CYLINDRICAL_SURFACE('',#338,45.);
#42=CYLINDRICAL_SURFACE('',#343,54.);
#43=CYLINDRICAL_SURFACE('',#369,44.);
#44=CYLINDRICAL_SURFACE('',#377,53.);
#45=CYLINDRICAL_SURFACE('',#381,50.);
#46=ORIENTED_EDGE('',*,*,#96,.T.);
#47=ORIENTED_EDGE('',*,*,#97,.F.);
#48=ORIENTED_EDGE('',*,*,#98,.T.);
#49=ORIENTED_EDGE('',*,*,#96,.F.);
#50=ORIENTED_EDGE('',*,*,#99,.T.);
#51=ORIENTED_EDGE('',*,*,#98,.F.);
#52=ORIENTED_EDGE('',*,*,#97,.T.);
#53=ORIENTED_EDGE('',*,*,#99,.F.);
#54=ORIENTED_EDGE('',*,*,#100,.T.);
#55=ORIENTED_EDGE('',*,*,#101,.F.);
#56=ORIENTED_EDGE('',*,*,#102,.T.);
#57=ORIENTED_EDGE('',*,*,#100,.F.);
#58=ORIENTED_EDGE('',*,*,#103,.T.);
#59=ORIENTED_EDGE('',*,*,#102,.F.);
#60=ORIENTED_EDGE('',*,*,#104,.T.);
#61=ORIENTED_EDGE('',*,*,#103,.F.);
#62=ORIENTED_EDGE('',*,*,#105,.T.);
#63=ORIENTED_EDGE('',*,*,#104,.F.);
#64=ORIENTED_EDGE('',*,*,#106,.T.);
#65=ORIENTED_EDGE('',*,*,#105,.F.);
#66=ORIENTED_EDGE('',*,*,#107,.T.);
#67=ORIENTED_EDGE('',*,*,#106,.F.);
#68=ORIENTED_EDGE('',*,*,#108,.T.);
#69=ORIENTED_EDGE('',*,*,#107,.F.);
#70=ORIENTED_EDGE('',*,*,#109,.T.);
#71=ORIENTED_EDGE('',*,*,#108,.F.);
#72=ORIENTED_EDGE('',*,*,#110,.T.);
#73=ORIENTED_EDGE('',*,*,#109,.F.);
#74=ORIENTED_EDGE('',*,*,#111,.T.);
#75=ORIENTED_EDGE('',*,*,#110,.F.);
#76=ORIENTED_EDGE('',*,*,#112,.T.);
#77=ORIENTED_EDGE('',*,*,#111,.F.);
#78=ORIENTED_EDGE('',*,*,#113,.T.);
#79=ORIENTED_EDGE('',*,*,#112,.F.);
#80=ORIENTED_EDGE('',*,*,#114,.T.);
#81=ORIENTED_EDGE('',*,*,#113,.F.);
#82=ORIENTED_EDGE('',*,*,#115,.T.);
#83=ORIENTED_EDGE('',*,*,#114,.F.);
#84=ORIENTED_EDGE('',*,*,#116,.T.);
#85=ORIENTED_EDGE('',*,*,#115,.F.);
#86=ORIENTED_EDGE('',*,*,#117,.T.);
#87=ORIENTED_EDGE('',*,*,#116,.F.);
#88=ORIENTED_EDGE('',*,*,#118,.T.);
#89=ORIENTED_EDGE('',*,*,#117,.F.);
#90=ORIENTED_EDGE('',*,*,#119,.T.);
#91=ORIENTED_EDGE('',*,*,#118,.F.);
#92=ORIENTED_EDGE('',*,*,#120,.T.);
#93=ORIENTED_EDGE('',*,*,#119,.F.);
#94=ORIENTED_EDGE('',*,*,#101,.T.);
#95=ORIENTED_EDGE('',*,*,#120,.F.);
#96=EDGE_CURVE('',#121,#121,#146,.T.);
#97=EDGE_CURVE('',#122,#122,#147,.T.);
#98=EDGE_CURVE('',#123,#123,#148,.T.);
#99=EDGE_CURVE('',#124,#124,#149,.T.);
#100=EDGE_CURVE('',#125,#125,#150,.T.);
#101=EDGE_CURVE('',#126,#126,#151,.T.);
#102=EDGE_CURVE('',#127,#127,#152,.T.);
#103=EDGE_CURVE('',#128,#128,#153,.T.);
#104=EDGE_CURVE('',#129,#129,#154,.T.);
#105=EDGE_CURVE('',#130,#130,#155,.T.);
#106=EDGE_CURVE('',#131,#131,#156,.T.);
#107=EDGE_CURVE('',#132,#132,#157,.T.);
#108=EDGE_CURVE('',#133,#133,#158,.T.);
#109=EDGE_CURVE('',#134,#134,#159,.T.);
#110=EDGE_CURVE('',#135,#135,#160,.T.);
#111=EDGE_CURVE('',#136,#136,#161,.T.);
#112=EDGE_CURVE('',#137,#137,#162,.T.);
#113=EDGE_CURVE('',#138,#138,#163,.T.);
#114=EDGE_CURVE('',#139,#139,#164,.T.);
#115=EDGE_CURVE('',#140,#140,#165,.T.);
#116=EDGE_CURVE('',#141,#141,#166,.T.);
#117=EDGE_CURVE('',#142,#142,#167,.T.);
#118=EDGE_CURVE('',#143,#143,#168,.T.);
#119=EDGE_CURVE('',#144,#144,#169,.T.);
#120=EDGE_CURVE('',#145,#145,#170,.T.);
#121=VERTEX_POINT('',#492);
#122=VERTEX_POINT('',#494);
#123=VERTEX_POINT('',#497);
#124=VERTEX_POINT('',#500);
#125=VERTEX_POINT('',#505);
#126=VERTEX_POINT('',#507);
#127=VERTEX_POINT('',#510);
#128=VERTEX_POINT('',#513);
#129=VERTEX_POINT('',#516);
#130=VERTEX_POINT('',#519);
#131=VERTEX_POINT('',#522);
#132=VERTEX_POINT('',#525);
#133=VERTEX_POINT('',#528);
#134=VERTEX_POINT('',#531);
#135=VERTEX_POINT('',#534);
#136=VERTEX_POINT('',#537);
#137=VERTEX_POINT('',#540);
#138=VERTEX_POINT('',#543);
#139=VERTEX_POINT('',#546);
#140=VERTEX_POINT('',#549);
#141=VERTEX_POINT('',#552);
#142=VERTEX_POINT('',#555);
#143=VERTEX_POINT('',#558);
#144=VERTEX_POINT('',#561);
#145=VERTEX_POINT('',#564);
#146=CIRCLE('',#332,43.2);
#147=CIRCLE('',#333,45.);
#148=CIRCLE('',#335,43.2);
#149=CIRCLE('',#337,45.);
#150=CIRCLE('',#341,54.);
#151=CIRCLE('',#342,50.);
#152=CIRCLE('',#344,54.);
#153=CIRCLE('',#346,47.);
#154=CIRCLE('',#348,46.5);
#155=CIRCLE('',#350,41.5);
#156=CIRCLE('',#352,33.35);
#157=CIRCLE('',#354,25.);
#158=CIRCLE('',#356,21.);
#159=CIRCLE('',#358,24.);
#160=CIRCLE('',#360,27.633);
#161=CIRCLE('',#362,39.);
#162=CIRCLE('',#364,43.);
#163=CIRCLE('',#366,42.5);
#164=CIRCLE('',#368,44.);
#165=CIRCLE('',#370,44.);
#166=CIRCLE('',#372,41.);
#167=CIRCLE('',#374,44.);
#168=CIRCLE('',#376,53.);
#169=CIRCLE('',#378,53.);
#170=CIRCLE('',#380,50.);
#171=EDGE_LOOP('',(#46));
#172=EDGE_LOOP('',(#47));
#173=EDGE_LOOP('',(#48));
#174=EDGE_LOOP('',(#49));
#175=EDGE_LOOP('',(#50));
#176=EDGE_LOOP('',(#51));
#177=EDGE_LOOP('',(#52));
#178=EDGE_LOOP('',(#53));
#179=EDGE_LOOP('',(#54));
#180=EDGE_LOOP('',(#55));
#181=EDGE_LOOP('',(#56));
#182=EDGE_LOOP('',(#57));
#183=EDGE_LOOP('',(#58));
#184=EDGE_LOOP('',(#59));
#185=EDGE_LOOP('',(#60));
#186=EDGE_LOOP('',(#61));
#187=EDGE_LOOP('',(#62));
#188=EDGE_LOOP('',(#63));
#189=EDGE_LOOP('',(#64));
#190=EDGE_LOOP('',(#65));
#191=EDGE_LOOP('',(#66));
#192=EDGE_LOOP('',(#67));
#193=EDGE_LOOP('',(#68));
#194=EDGE_LOOP('',(#69));
#195=EDGE_LOOP('',(#70));
#196=EDGE_LOOP('',(#71));
#197=EDGE_LOOP('',(#72));
#198=EDGE_LOOP('',(#73));
#199=EDGE_LOOP('',(#74));
#200=EDGE_LOOP('',(#75));
#201=EDGE_LOOP('',(#76));
#202=EDGE_LOOP('',(#77));
#203=EDGE_LOOP('',(#78));
#204=EDGE_LOOP('',(#79));
#205=EDGE_LOOP('',(#80));
#206=EDGE_LOOP('',(#81));
#207=EDGE_LOOP('',(#82));
#208=EDGE_LOOP('',(#83));
#209=EDGE_LOOP('',(#84));
#210=EDGE_LOOP('',(#85));
#211=EDGE_LOOP('',(#86));
#212=EDGE_LOOP('',(#87));
#213=EDGE_LOOP('',(#88));
#214=EDGE_LOOP('',(#89));
#215=EDGE_LOOP('',(#90));
#216=EDGE_LOOP('',(#91));
#217=EDGE_LOOP('',(#92));
#218=EDGE_LOOP('',(#93));
#219=EDGE_LOOP('',(#94));
#220=EDGE_LOOP('',(#95));
#221=FACE_BOUND('',#171,.T.);
#222=FACE_BOUND('',#172,.T.);
#223=FACE_BOUND('',#173,.T.);
#224=FACE_BOUND('',#174,.T.);
#225=FACE_BOUND('',#175,.T.);
#226=FACE_BOUND('',#176,.T.);
#227=FACE_BOUND('',#177,.T.);
#228=FACE_BOUND('',#178,.T.);
#229=FACE_BOUND('',#179,.T.);
#230=FACE_BOUND('',#180,.T.);
#231=FACE_BOUND('',#181,.T.);
#232=FACE_BOUND('',#182,.T.);
#233=FACE_BOUND('',#183,.T.);
#234=FACE_BOUND('',#184,.T.);
#235=FACE_BOUND('',#185,.T.);
#236=FACE_BOUND('',#186,.T.);
#237=FACE_BOUND('',#187,.T.);
#238=FACE_BOUND('',#188,.T.);
#239=FACE_BOUND('',#189,.T.);
#240=FACE_BOUND('',#190,.T.);
#241=FACE_BOUND('',#191,.T.);
#242=FACE_BOUND('',#192,.T.);
#243=FACE_BOUND('',#193,.T.);
#244=FACE_BOUND('',#194,.T.);
#245=FACE_BOUND('',#195,.T.);
#246=FACE_BOUND('',#196,.T.);
#247=FACE_BOUND('',#197,.T.);
#248=FACE_BOUND('',#198,.T.);
#249=FACE_BOUND('',#199,.T.);
#250=FACE_BOUND('',#200,.T.);
#251=FACE_BOUND('',#201,.T.);
#252=FACE_BOUND('',#202,.T.);
#253=FACE_BOUND('',#203,.T.);
#254=FACE_BOUND('',#204,.T.);
#255=FACE_BOUND('',#205,.T.);
#256=FACE_BOUND('',#206,.T.);
#257=FACE_BOUND('',#207,.T.);
#258=FACE_BOUND('',#208,.T.);
#259=FACE_BOUND('',#209,.T.);
#260=FACE_BOUND('',#210,.T.);
#261=FACE_BOUND('',#211,.T.);
#262=FACE_BOUND('',#212,.T.);
#263=FACE_BOUND('',#213,.T.);
#264=FACE_BOUND('',#214,.T.);
#265=FACE_BOUND('',#215,.T.);
#266=FACE_BOUND('',#216,.T.);
#267=FACE_BOUND('',#217,.T.);
#268=FACE_BOUND('',#218,.T.);
#269=FACE_BOUND('',#219,.T.);
#270=FACE_BOUND('',#220,.T.);
#271=PLANE('',#331);
#272=PLANE('',#336);
#273=PLANE('',#340);
#274=PLANE('',#345);
#275=PLANE('',#349);
#276=PLANE('',#353);
#277=PLANE('',#357);
#278=PLANE('',#361);
#279=PLANE('',#367);
#280=ADVANCED_FACE('',(#221,#222),#271,.T.);
#281=ADVANCED_FACE('',(#223,#224),#40,.F.);
#282=ADVANCED_FACE('',(#225,#226),#272,.T.);
#283=ADVANCED_FACE('',(#227,#228),#41,.T.);
#284=ADVANCED_FACE('',(#229,#230),#273,.T.);
#285=ADVANCED_FACE('',(#231,#232),#42,.T.);
#286=ADVANCED_FACE('',(#233,#234),#274,.T.);
#287=ADVANCED_FACE('',(#235,#236),#18,.F.);
#288=ADVANCED_FACE('',(#237,#238),#275,.T.);
#289=ADVANCED_FACE('',(#239,#240),#19,.F.);
#290=ADVANCED_FACE('',(#241,#242),#276,.T.);
#291=ADVANCED_FACE('',(#243,#244),#20,.F.);
#292=ADVANCED_FACE('',(#245,#246),#277,.T.);
#293=ADVANCED_FACE('',(#247,#248),#21,.T.);
#294=ADVANCED_FACE('',(#249,#250),#278,.T.);
#295=ADVANCED_FACE('',(#251,#252),#22,.T.);
#296=ADVANCED_FACE('',(#253,#254),#23,.T.);
#297=ADVANCED_FACE('',(#255,#256),#279,.T.);
#298=ADVANCED_FACE('',(#257,#258),#43,.T.);
#299=ADVANCED_FACE('',(#259,#260),#24,.T.);
#300=ADVANCED_FACE('',(#261,#262),#25,.T.);
#301=ADVANCED_FACE('',(#263,#264),#26,.T.);
#302=ADVANCED_FACE('',(#265,#266),#44,.T.);
#303=ADVANCED_FACE('',(#267,#268),#27,.T.);
#304=ADVANCED_FACE('',(#269,#270),#45,.T.);
#305=CLOSED_SHELL('',(#280,#281,#282,#283));
#306=CLOSED_SHELL('',(#284,#285,#286,#287,#288,#289,#290,#291,#292,#293,
#294,#295,#296,#297,#298,#299,#300,#301,#302,#303,#304));
#307=STYLED_ITEM('',(#309),#322);
#308=STYLED_ITEM('',(#310),#323);
#309=PRESENTATION_STYLE_ASSIGNMENT((#311));
#310=PRESENTATION_STYLE_ASSIGNMENT((#312));
#311=SURFACE_STYLE_USAGE(.BOTH.,#313);
#312=SURFACE_STYLE_USAGE(.BOTH.,#314);
#313=SURFACE_SIDE_STYLE('',(#315));
#314=SURFACE_SIDE_STYLE('',(#316));
#315=SURFACE_STYLE_FILL_AREA(#317);
#316=SURFACE_STYLE_FILL_AREA(#318);
#317=FILL_AREA_STYLE('',(#319));
#318=FILL_AREA_STYLE('',(#320));
#319=FILL_AREA_STYLE_COLOUR('',#321);
#320=FILL_AREA_STYLE_COLOUR('',#321);
#321=COLOUR_RGB('',0.689999997615814,0.689999997615814,0.689999997615814);
#322=MANIFOLD_SOLID_BREP('482060001(1,85)_P2',#305);
#323=MANIFOLD_SOLID_BREP('482060001(1)_P1',#306);
#324=SHAPE_DEFINITION_REPRESENTATION(#577,#327);
#325=SHAPE_DEFINITION_REPRESENTATION(#578,#328);
#326=SHAPE_DEFINITION_REPRESENTATION(#580,#329);
#327=SHAPE_REPRESENTATION('482060001(1)',(#330,#339,#382),#568);
#328=SHAPE_REPRESENTATION('482060001(1,85)_P2',(#330),#569);
#329=SHAPE_REPRESENTATION('482060001(1)_P1',(#330),#570);
#330=AXIS2_PLACEMENT_3D('',#489,#383,#384);
#331=AXIS2_PLACEMENT_3D('',#490,#385,#386);
#332=AXIS2_PLACEMENT_3D('',#491,#387,#388);
#333=AXIS2_PLACEMENT_3D('',#493,#389,#390);
#334=AXIS2_PLACEMENT_3D('',#495,#391,#392);
#335=AXIS2_PLACEMENT_3D('',#496,#393,#394);
#336=AXIS2_PLACEMENT_3D('',#498,#395,#396);
#337=AXIS2_PLACEMENT_3D('',#499,#397,#398);
#338=AXIS2_PLACEMENT_3D('',#501,#399,#400);
#339=AXIS2_PLACEMENT_3D('',#502,#401,#402);
#340=AXIS2_PLACEMENT_3D('',#503,#403,#404);
#341=AXIS2_PLACEMENT_3D('',#504,#405,#406);
#342=AXIS2_PLACEMENT_3D('',#506,#407,#408);
#343=AXIS2_PLACEMENT_3D('',#508,#409,#410);
#344=AXIS2_PLACEMENT_3D('',#509,#411,#412);
#345=AXIS2_PLACEMENT_3D('',#511,#413,#414);
#346=AXIS2_PLACEMENT_3D('',#512,#415,#416);
#347=AXIS2_PLACEMENT_3D('',#514,#417,#418);
#348=AXIS2_PLACEMENT_3D('',#515,#419,#420);
#349=AXIS2_PLACEMENT_3D('',#517,#421,#422);
#350=AXIS2_PLACEMENT_3D('',#518,#423,#424);
#351=AXIS2_PLACEMENT_3D('',#520,#425,#426);
#352=AXIS2_PLACEMENT_3D('',#521,#427,#428);
#353=AXIS2_PLACEMENT_3D('',#523,#429,#430);
#354=AXIS2_PLACEMENT_3D('',#524,#431,#432);
#355=AXIS2_PLACEMENT_3D('',#526,#433,#434);
#356=AXIS2_PLACEMENT_3D('',#527,#435,#436);
#357=AXIS2_PLACEMENT_3D('',#529,#437,#438);
#358=AXIS2_PLACEMENT_3D('',#530,#439,#440);
#359=AXIS2_PLACEMENT_3D('',#532,#441,#442);
#360=AXIS2_PLACEMENT_3D('',#533,#443,#444);
#361=AXIS2_PLACEMENT_3D('',#535,#445,#446);
#362=AXIS2_PLACEMENT_3D('',#536,#447,#448);
#363=AXIS2_PLACEMENT_3D('',#538,#449,#450);
#364=AXIS2_PLACEMENT_3D('',#539,#451,#452);
#365=AXIS2_PLACEMENT_3D('',#541,#453,#454);
#366=AXIS2_PLACEMENT_3D('',#542,#455,#456);
#367=AXIS2_PLACEMENT_3D('',#544,#457,#458);
#368=AXIS2_PLACEMENT_3D('',#545,#459,#460);
#369=AXIS2_PLACEMENT_3D('',#547,#461,#462);
#370=AXIS2_PLACEMENT_3D('',#548,#463,#464);
#371=AXIS2_PLACEMENT_3D('',#550,#465,#466);
#372=AXIS2_PLACEMENT_3D('',#551,#467,#468);
#373=AXIS2_PLACEMENT_3D('',#553,#469,#470);
#374=AXIS2_PLACEMENT_3D('',#554,#471,#472);
#375=AXIS2_PLACEMENT_3D('',#556,#473,#474);
#376=AXIS2_PLACEMENT_3D('',#557,#475,#476);
#377=AXIS2_PLACEMENT_3D('',#559,#477,#478);
#378=AXIS2_PLACEMENT_3D('',#560,#479,#480);
#379=AXIS2_PLACEMENT_3D('',#562,#481,#482);
#380=AXIS2_PLACEMENT_3D('',#563,#483,#484);
#381=AXIS2_PLACEMENT_3D('',#565,#485,#486);
#382=AXIS2_PLACEMENT_3D('',#566,#487,#488);
#383=DIRECTION('',(0.,0.,1.));
#384=DIRECTION('',(1.,0.,0.));
#385=DIRECTION('',(0.,0.,-1.));
#386=DIRECTION('',(-1.,0.,0.));
#387=DIRECTION('',(0.,0.,1.));
#388=DIRECTION('',(1.,0.,0.));
#389=DIRECTION('',(0.,0.,1.));
#390=DIRECTION('',(1.,0.,0.));
#391=DIRECTION('',(0.,0.,1.));
#392=DIRECTION('',(1.,0.,0.));
#393=DIRECTION('',(0.,0.,1.));
#394=DIRECTION('',(1.,0.,0.));
#395=DIRECTION('',(0.,0.,1.));
#396=DIRECTION('',(1.,0.,0.));
#397=DIRECTION('',(0.,0.,1.));
#398=DIRECTION('',(1.,0.,0.));
#399=DIRECTION('',(0.,0.,1.));
#400=DIRECTION('',(1.,0.,0.));
#401=DIRECTION('',(0.,0.,1.));
#402=DIRECTION('',(1.,0.,0.));
#403=DIRECTION('',(0.,0.,-1.));
#404=DIRECTION('',(-1.,0.,0.));
#405=DIRECTION('',(0.,0.,-1.));
#406=DIRECTION('',(-1.,0.,0.));
#407=DIRECTION('',(0.,0.,-1.));
#408=DIRECTION('',(-1.,0.,0.));
#409=DIRECTION('',(0.,0.,-1.));
#410=DIRECTION('',(-1.,0.,0.));
#411=DIRECTION('',(0.,0.,-1.));
#412=DIRECTION('',(-1.,0.,0.));
#413=DIRECTION('',(0.,0.,1.));
#414=DIRECTION('',(1.,0.,0.));
#415=DIRECTION('',(0.,0.,-1.));
#416=DIRECTION('',(-1.,0.,0.));
#417=DIRECTION('',(0.,0.,1.));
#418=DIRECTION('',(1.,0.,0.));
#419=DIRECTION('',(0.,0.,-1.));
#420=DIRECTION('',(-1.,0.,0.));
#421=DIRECTION('',(0.,0.,1.));
#422=DIRECTION('',(1.,0.,0.));
#423=DIRECTION('',(0.,0.,-1.));
#424=DIRECTION('',(-1.,0.,0.));
#425=DIRECTION('',(0.,0.,1.));
#426=DIRECTION('',(1.,0.,0.));
#427=DIRECTION('',(0.,0.,-1.));
#428=DIRECTION('',(-1.,0.,0.));
#429=DIRECTION('',(0.,0.,1.));
#430=DIRECTION('',(1.,0.,0.));
#431=DIRECTION('',(0.,0.,-1.));
#432=DIRECTION('',(-1.,0.,0.));
#433=DIRECTION('',(0.,0.,1.));
#434=DIRECTION('',(1.,0.,0.));
#435=DIRECTION('',(0.,0.,-1.));
#436=DIRECTION('',(-1.,0.,0.));
#437=DIRECTION('',(0.,0.,-1.));
#438=DIRECTION('',(-1.,0.,0.));
#439=DIRECTION('',(0.,0.,-1.));
#440=DIRECTION('',(-1.,0.,0.));
#441=DIRECTION('',(0.,0.,1.));
#442=DIRECTION('',(1.,0.,0.));
#443=DIRECTION('',(0.,0.,-1.));
#444=DIRECTION('',(-1.,0.,0.));
#445=DIRECTION('',(0.,0.,-1.));
#446=DIRECTION('',(-1.,0.,0.));
#447=DIRECTION('',(0.,0.,-1.));
#448=DIRECTION('',(-1.,0.,0.));
#449=DIRECTION('',(0.,0.,1.));
#450=DIRECTION('',(1.,0.,0.));
#451=DIRECTION('',(0.,0.,-1.));
#452=DIRECTION('',(-1.,0.,0.));
#453=DIRECTION('',(0.,0.,-1.));
#454=DIRECTION('',(-1.,0.,0.));
#455=DIRECTION('',(0.,0.,-1.));
#456=DIRECTION('',(-1.,0.,0.));
#457=DIRECTION('',(0.,0.,-1.));
#458=DIRECTION('',(-1.,0.,0.));
#459=DIRECTION('',(0.,0.,-1.));
#460=DIRECTION('',(-1.,0.,0.));
#461=DIRECTION('',(0.,0.,-1.));
#462=DIRECTION('',(-1.,0.,0.));
#463=DIRECTION('',(0.,0.,-1.));
#464=DIRECTION('',(-1.,0.,0.));
#465=DIRECTION('',(0.,0.,-1.));
#466=DIRECTION('',(-1.,0.,0.));
#467=DIRECTION('',(0.,0.,-1.));
#468=DIRECTION('',(-1.,0.,0.));
#469=DIRECTION('',(0.,0.,1.));
#470=DIRECTION('',(1.,0.,0.));
#471=DIRECTION('',(0.,0.,-1.));
#472=DIRECTION('',(-1.,0.,0.));
#473=DIRECTION('',(0.,0.,1.));
#474=DIRECTION('',(1.,0.,0.));
#475=DIRECTION('',(0.,0.,-1.));
#476=DIRECTION('',(-1.,0.,0.));
#477=DIRECTION('',(0.,0.,-1.));
#478=DIRECTION('',(-1.,0.,0.));
#479=DIRECTION('',(0.,0.,-1.));
#480=DIRECTION('',(-1.,0.,0.));
#481=DIRECTION('',(0.,0.,-1.));
#482=DIRECTION('',(-1.,0.,0.));
#483=DIRECTION('',(0.,0.,-1.));
#484=DIRECTION('',(-1.,0.,0.));
#485=DIRECTION('',(0.,0.,-1.));
#486=DIRECTION('',(-1.,0.,0.));
#487=DIRECTION('',(0.,0.,1.));
#488=DIRECTION('',(1.,0.,0.));
#489=CARTESIAN_POINT('',(0.,0.,0.));
#490=CARTESIAN_POINT('',(45.,0.,-85.));
#491=CARTESIAN_POINT('',(0.,0.,-85.));
#492=CARTESIAN_POINT('',(43.2,0.,-85.));
#493=CARTESIAN_POINT('',(0.,0.,-85.));
#494=CARTESIAN_POINT('',(45.,0.,-85.));
#495=CARTESIAN_POINT('',(0.,0.,50.));
#496=CARTESIAN_POINT('',(0.,0.,0.));
#497=CARTESIAN_POINT('',(43.2,0.,0.));
#498=CARTESIAN_POINT('',(43.2,0.,0.));
#499=CARTESIAN_POINT('',(0.,0.,0.));
#500=CARTESIAN_POINT('',(45.,0.,0.));
#501=CARTESIAN_POINT('',(0.,0.,50.));
#502=CARTESIAN_POINT('',(0.,0.,-30.));
#503=CARTESIAN_POINT('',(-50.,0.,-6.));
#504=CARTESIAN_POINT('',(0.,0.,-6.));
#505=CARTESIAN_POINT('',(-54.,0.,-6.));
#506=CARTESIAN_POINT('',(0.,0.,-6.));
#507=CARTESIAN_POINT('',(-50.,0.,-6.));
#508=CARTESIAN_POINT('',(0.,0.,-8.));
#509=CARTESIAN_POINT('',(0.,0.,0.));
#510=CARTESIAN_POINT('',(-54.,0.,0.));
#511=CARTESIAN_POINT('',(-54.,0.,0.));
#512=CARTESIAN_POINT('',(0.,0.,0.));
#513=CARTESIAN_POINT('',(-47.,0.,0.));
#514=CARTESIAN_POINT('',(0.,0.,0.));
#515=CARTESIAN_POINT('',(0.,0.,-10.));
#516=CARTESIAN_POINT('',(-46.5,0.,-10.));
#517=CARTESIAN_POINT('',(-46.5,0.,-10.));
#518=CARTESIAN_POINT('',(0.,0.,-10.));
#519=CARTESIAN_POINT('',(-41.5,0.,-10.));
#520=CARTESIAN_POINT('',(0.,0.,-10.));
#521=CARTESIAN_POINT('',(0.,0.,-34.45));
#522=CARTESIAN_POINT('',(-33.35,0.,-34.45));
#523=CARTESIAN_POINT('',(-33.35,0.,-34.45));
#524=CARTESIAN_POINT('',(0.,0.,-34.45));
#525=CARTESIAN_POINT('',(-25.,0.,-34.45));
#526=CARTESIAN_POINT('',(0.,0.,-34.45));
#527=CARTESIAN_POINT('',(0.,0.,-95.));
#528=CARTESIAN_POINT('',(-21.,0.,-95.));
#529=CARTESIAN_POINT('',(-21.,0.,-95.));
#530=CARTESIAN_POINT('',(0.,0.,-95.));
#531=CARTESIAN_POINT('',(-24.,0.,-95.));
#532=CARTESIAN_POINT('',(0.,0.,-95.));
#533=CARTESIAN_POINT('',(0.,0.,-40.));
#534=CARTESIAN_POINT('',(-27.633,0.,-40.));
#535=CARTESIAN_POINT('',(-27.633,0.,-40.));
#536=CARTESIAN_POINT('',(0.,0.,-40.));
#537=CARTESIAN_POINT('',(-39.,0.,-40.));
#538=CARTESIAN_POINT('',(0.,0.,-40.));
#539=CARTESIAN_POINT('',(0.,0.,-37.));
#540=CARTESIAN_POINT('',(-43.,0.,-37.));
#541=CARTESIAN_POINT('',(0.,0.,-37.));
#542=CARTESIAN_POINT('',(0.,0.,-30.));
#543=CARTESIAN_POINT('',(-42.5,0.,-30.));
#544=CARTESIAN_POINT('',(-42.5,0.,-30.));
#545=CARTESIAN_POINT('',(0.,0.,-30.));
#546=CARTESIAN_POINT('',(-44.,0.,-30.));
#547=CARTESIAN_POINT('',(0.,0.,-8.));
#548=CARTESIAN_POINT('',(0.,0.,-28.));
#549=CARTESIAN_POINT('',(-44.,0.,-28.));
#550=CARTESIAN_POINT('',(0.,0.,-28.));
#551=CARTESIAN_POINT('',(0.,0.,-25.));
#552=CARTESIAN_POINT('',(-41.,0.,-25.));
#553=CARTESIAN_POINT('',(0.,0.,-25.));
#554=CARTESIAN_POINT('',(0.,0.,-16.));
#555=CARTESIAN_POINT('',(-44.,0.,-16.));
#556=CARTESIAN_POINT('',(0.,0.,-16.));
#557=CARTESIAN_POINT('',(0.,0.,-15.));
#558=CARTESIAN_POINT('',(-53.,0.,-15.));
#559=CARTESIAN_POINT('',(0.,0.,-8.));
#560=CARTESIAN_POINT('',(0.,0.,-13.));
#561=CARTESIAN_POINT('',(-53.,0.,-13.));
#562=CARTESIAN_POINT('',(0.,0.,-13.));
#563=CARTESIAN_POINT('',(0.,0.,-10.));
#564=CARTESIAN_POINT('',(-50.,0.,-10.));
#565=CARTESIAN_POINT('',(0.,0.,-8.));
#566=CARTESIAN_POINT('',(0.,0.,0.));
#567=MECHANICAL_DESIGN_GEOMETRIC_PRESENTATION_REPRESENTATION('',(#307,#308),
#568);
#568=(
GEOMETRIC_REPRESENTATION_CONTEXT(3)
GLOBAL_UNCERTAINTY_ASSIGNED_CONTEXT((#571))
GLOBAL_UNIT_ASSIGNED_CONTEXT((#576,#575,#574))
REPRESENTATION_CONTEXT('482060001(1)','TOP_LEVEL_ASSEMBLY_PART')
);
#569=(
GEOMETRIC_REPRESENTATION_CONTEXT(3)
GLOBAL_UNCERTAINTY_ASSIGNED_CONTEXT((#572))
GLOBAL_UNIT_ASSIGNED_CONTEXT((#576,#575,#574))
REPRESENTATION_CONTEXT('482060001(1,85)_P2','COMPONENT_PART')
);
#570=(
GEOMETRIC_REPRESENTATION_CONTEXT(3)
GLOBAL_UNCERTAINTY_ASSIGNED_CONTEXT((#573))
GLOBAL_UNIT_ASSIGNED_CONTEXT((#576,#575,#574))
REPRESENTATION_CONTEXT('482060001(1)_P1','COMPONENT_PART')
);
#571=UNCERTAINTY_MEASURE_WITH_UNIT(LENGTH_MEASURE(0.005),#576,
'DISTANCE_ACCURACY_VALUE','Maximum Tolerance applied to model');
#572=UNCERTAINTY_MEASURE_WITH_UNIT(LENGTH_MEASURE(0.005),#576,
'DISTANCE_ACCURACY_VALUE','Maximum Tolerance applied to model');
#573=UNCERTAINTY_MEASURE_WITH_UNIT(LENGTH_MEASURE(0.005),#576,
'DISTANCE_ACCURACY_VALUE','Maximum Tolerance applied to model');
#574=(
NAMED_UNIT(*)
SI_UNIT($,.STERADIAN.)
SOLID_ANGLE_UNIT()
);
#575=(
NAMED_UNIT(*)
PLANE_ANGLE_UNIT()
SI_UNIT($,.RADIAN.)
);
#576=(
LENGTH_UNIT()
NAMED_UNIT(*)
SI_UNIT(.MILLI.,.METRE.)
);
#577=PRODUCT_DEFINITION_SHAPE('','',#582);
#578=PRODUCT_DEFINITION_SHAPE('','',#583);
#579=PRODUCT_DEFINITION_SHAPE(' ','NAUO PRDDFN',#30);
#580=PRODUCT_DEFINITION_SHAPE('','',#584);
#581=PRODUCT_DEFINITION_SHAPE(' ','NAUO PRDDFN',#31);
#582=PRODUCT_DEFINITION('','',#588,#585);
#583=PRODUCT_DEFINITION('','',#589,#586);
#584=PRODUCT_DEFINITION('','',#590,#587);
#585=PRODUCT_DEFINITION_CONTEXT('',#604,'design');
#586=PRODUCT_DEFINITION_CONTEXT('',#604,'design');
#587=PRODUCT_DEFINITION_CONTEXT('',#604,'design');
#588=PRODUCT_DEFINITION_FORMATION_WITH_SPECIFIED_SOURCE('','',#594,
 .NOT_KNOWN.);
#589=PRODUCT_DEFINITION_FORMATION_WITH_SPECIFIED_SOURCE('','',#595,
 .NOT_KNOWN.);
#590=PRODUCT_DEFINITION_FORMATION_WITH_SPECIFIED_SOURCE('','',#596,
 .NOT_KNOWN.);
#591=PRODUCT_RELATED_PRODUCT_CATEGORY('','',(#594));
#592=PRODUCT_RELATED_PRODUCT_CATEGORY('','',(#595));
#593=PRODUCT_RELATED_PRODUCT_CATEGORY('','',(#596));
#594=PRODUCT('482060001(1)','482060001(1)','482060001(1)',(#600));
#595=PRODUCT('482060001(1,85)_P2','482060001(1,85)_P2',
'482060001(1,85)_P2',(#601));
#596=PRODUCT('482060001(1)_P1','482060001(1)_P1','482060001(1)_P1',(#602));
#597=PRODUCT_CATEGORY('','');
#598=PRODUCT_CATEGORY('','');
#599=PRODUCT_CATEGORY('','');
#600=PRODUCT_CONTEXT('',#604,'mechanical');
#601=PRODUCT_CONTEXT('',#604,'mechanical');
#602=PRODUCT_CONTEXT('',#604,'mechanical');
#603=APPLICATION_PROTOCOL_DEFINITION('international standard',
'automotive_design',2010,#604);
#604=APPLICATION_CONTEXT(
'core data for automotive mechanical design processes');
ENDSEC;
END-ISO-10303-21;
